Pistol cu capse – Bara, bara

(6 voturi)

Contribuție:  ghit razvan


Se canta intr-un ritm mai alert de ska


INTRO:

e |-----777----77----777-----8-8-----10-----|
B |-----888----88----777-----8-8-----10-----|
G |------------99----888-----9-9-----11-----|
D |------------------999----1010-----12-----|
A |-----------------------------------------|
E |-----------------------------------------|

ACORDURI FOLOSITE:


        Em   B    C    G    
e |-----7----7----8----3-----|
B |-----8----7----8----3-----|
G |-----9----8----9----4-----| 
D |-----9----9----10---5-----|
A |--------------------------|
E |--------------------------|



Em
Era o zi fierbinte ma plictiseam de mor
B
Atunci am observat ceva ciudat la culori
C
Departe se-auzea ceva ce era minunat
G                         B 
Ma simteam mult prea bine desi nu m-am culcat...si
Em
Bara, bara, bara, bara, bara, bara, ba
B
Se auzea doar toba mare, basu si vocea ta
C
Nimic nu ma poate face mai fericit decat sunt
G                          B
Nici eu nu mai stiu despre ce vreau sa cant


INTRE STROFE SE REIA PARTEA DE INTRO SI APOI ACORDURILE DE PE STROFA

Stau aici nu fac nimic si nu vreau sa stiu

A trecut ceva timp de cand nu mai vreau sa scriu

Si poate c-am sa-mi fac un castel de nisip

Si cand am sa ma-ntorc n-ai sa stii c-am venit

Vad rosu-n fatza mea si nimic nu are sens

Fara sa ne dam seama am creat un mic univers

La scoala cand eram ma duceam fara stres

N-aveam nimic de spus si nici un ïnteres


DUPA ULTIMA STROFA (cea cu tananana) SE INTRA TOT ACORDURILE DE PE STROFA DAR POWER
 CHORDS, IN URMATOAREA ORDINE:



     E5    B5    C      G     C    G     B5
e | -----------------------------------------|
B | -----------------------------------------|
G | -------4-----5------------5----------4---| 
D | -2-----4-----5------5-----5----5-----4---|
A | -2-----2-----3------5-----3----5-----2---|
E | -0------------------3----------3---------|

Rock  

Comentarii

Pentru a putea vota sau adăuda comentarii, e nevoie să te autentifici sau înregistrezi .