Coma – Hectic

(3 voturi)

Contribuție:  claudiu


Coma-Hectic -acordaj  in SI-asculta bine si piesa,rabdare .etc

Strofa:
B------------------------------------------------------------
G------------------------------------------------------------
D------------------------------------------------------------
A------------------------------------------------------------
E------------------------------------------------------------
B----4-5--4-5--4-5--4-5--4-5--5-5-4--2-4--2-4--2-4--2-4--4---

PM--------------------------------------------]
(palm muting)

B-----------------------------------------------------------
G-----------------------------------------------------------
D--------5-5-4-----------------5-5-2------------------------  X 2
A---2--2--------0--2-2--0--2-2--------2-2-0-----------------
E---2--2--------0--2-2--0--2-2--------2-2-0-----------------
B---2--2--------0--2-2--0--2-2--------2-2-0-----------------

B------------------------------------------------------------
G------------------------------------------------------------
D------------------------------------------------------------
A------------------------------------------------------------
E------------------------------------------------------------
B--2-3--2-3--2-3--2-3--2-3--3-3-2--0-2--0-2--0-2--0-2--0-0---

PM---------------------------------------------------------]

B------------------------------------------------------------
G------------------------------------------------------------
D------------------------------------------------------------
A------------------------------------------------------------
E---------------5---------------------5----------------------
B---14\2--5/7-7---7-7--7-5h6h7--5/7-7---7-7--7-5h6h7---------

B------------------------------------------------------------
G------------------------------------------------------------
D------------------------------------------------------------
A------------------------------------------------------------
E------------------------------------------------------------
B--2-3--2-3--2-3--2-3--2-3--3-3-2--0-2--0-2--0-2--0-2-2------

PM-----------------------------------------------------]

Refren:
B------------------------------------    B--------------------------
G------------------------------------    G--------------------------
D------------------------------------    D--------------------------
A--2--2-2-5-4-x-4-5-------------5-5-- x3 A--2-2-2-5-4-x-----4-----3- 
E--2-2-2-3-2-x-4-5-----0-0--0-0-3-3--    E--2-2-2-3-2-x-----4-----3-
B--2-2-2-----x-4-5-------------------    B--2-2-2-----x---0-4-0-0-3-

Strofa:....
refren:....

"nici cunvant....."
B---7----------7----------7---------7----------7------------------
G---7--7-------7--7-------7--7------7-7--------7------------------
D--------9----------9---------9---------9--------9--9--9----------
A----------10---------10--------10--------10-----10-7--x----------
E------------------------------------------------------7----------
B-----------------------------------------------------------------


pleacaaaa!pleacaaa!pleacaaa!!!
B----------------------------------x-x-x------------------------
G----------------------------------x-x-x-flagioleti-pe-pragul-3-
D----------------------------------x-x-x------------------------
A--3-2-2-2--x-x-2-2-2--x-2-2-2-x-x------------------------------
E--3-2-2-2--x-x-2-2-2--x-2-2-2-x-x------------------------------
B--3-2-2-2--x-x-2-2-2--x-2-2-2-x-x------------------------------

x-urile astea sunt de fapt asa: tii barre pe pragul 2 si palmezi atat 
cu stanga cat si cu inelarul de la dreapta.

Rock  

Pentru a putea vota sau adăuda comentarii, e nevoie să te autentifici sau înregistrezi .