Nicu Alifantis – Apa marii

(13 voturi)

Contribuție:  rasgeado


                            
E||--------------------------|-----------0-------------|
B||--------1-----------3-----|----------------0-----0--|
G||-----------0-----------4--|-------------------0-----|
D||-----2-----------4--------|--------2----------------|
A||--3-----------2-----------|-----2-------------------|
E||--------------------------|--0----------------------|


                              
-----------2-------------|-----------0-------------||
--------3-------3-----3--|----------------0-----0--||
-----4-------------4-----|-------------------0-----||
-------------------------|--------2----------------||
--2----------------------|-----2-------------------||
-------------------------|--0----------------------||



                                 
 Mare-albastru giuvaier    a suras in departare 
                    
 Dinti de spuma alba-n soare
             
 Buze umede de cer

Mare-albastru giuvaier a suras in departare
Dinti de spuma alba-n soare
Buze umede de cer

                                           
Tu ce vinzi tulburatoare tanara cu sanii in vant
                                  
Apa marilor, straine doamne vreau s-o vand
                                         
Tanar negru ce amestec porti in sange curcubeu
                                   
Apa marilor straine pana-n sange o port eu.

Si-aste lacrimi salcii, spune mama cin'le strange?
Apa marii, apa marii domnule in ele plange

Cine naste-amaraciunea inimii apasatoare
E atat de-amara apa marilor tremuratoare.

Folk  

Comentarii

Pentru a putea vota sau adăuda comentarii, e nevoie să te autentifici sau înregistrezi .

Acorduri