Pistol cu capse – Ioana

(10 voturi)

Contribuție:  ghit razvan


INTRO chitara lui Dan care merge si pe versuri 

e|--------------------------------|
B|--------------------------------|
G|--9--11-----9--11----9--8--6----|
D|--x--x------x--x-----x--x--x----|
A|--7--9------7--9-----7--6--4----|
E|--------------------------------|

Apoi intra chitara lui Vlad pe versuri - acorduri folosite:
    
     Em5    B5     C#5     A5    E5    F#5
e|------------------------------------------|
B|------------------------------------------|
G|----------4------6--------------9---------|
D|----2-----4------6-------7------9-----4---|
A|----2-----2------4-------7------7-----4---|
E|----0--------------------5------------2---|

              Em5
Ioana stie ce faci
                 B5
Ioana stie ca-mi placi
               C#5
Ioana stie cam tot
       B5                  A5
Ce gandesti si-atunci cand taci


              Em5
Ioana stie ce vrei
                 B5
Te duce in lumea ei
               C#5
Ioana stie cam tot
           B5            A5
Ce s-a schimbat in viata mea

              
            Em5 B5 C#5 B5 A5
E mai bine-asa
E mai bine-asa


F#5        A5       E5
As vrea sa pot sa aleg
F#5       A5       E5  
Sa pot sa stau sa-nteleg
         C#5      F#5
Poate ma vezi
       A5
Poate stii



APOI URMEAZA SOLO-UL

e|---------------------------------------------------------------------------
B|----10-9--------------10--9---------------10--9------9--10-10-10-10---10---
G|---------11--99999-----------11--88888-----------11------------------------
D|---------------------------------------------------------------------------
A|---------------------------------------------------------------------------
E|---------------------------------------------------------------------------

e|------------------------------------------------|
B|--99---77---9--10-10-10-10---12-12-12---10-10--9|
G|------------------------------------------------|
D|------------------------------------------------|
A|------------------------------------------------|
E|------------------------------------------------|

Rock  

Ultima actualizare:  21.09.2008

Pentru a putea vota sau adăuda comentarii, e nevoie să te autentifici sau înregistrezi .