Fără Zahăr – D' La Sate

(21 voturi)

Contribuție:  Lalu


Am vazut ca este foarte ceruta, deci... am zis sa o pun pe site :).
Sper sa va placa si sa va si iasa.

Versuri + Refren (Se repeta de-a lungul intregii melodii:


   Am		     D		       C/A		 D
e-|---------0-------|---------2-------|---------3-------|---------2h3p2----|
B-|---------1-------|---------3-------|---------1-------|---------3--------|
G-|-------------2---|-----2-------2---|-----2-------2---|-----2--------2---|
D-|-----2-----------|-0---------------|-2---------------|-0----------------|
A-|-0---------------|-----------------|-----------------|------------------|
E-|-----------------|-----------------|-----------------|------------------|

Solo:

e-|-5-------7s9--9---|-7---7---10s12--12---|-5-------9---9---|-7---7---0---0---|

e-|-5-------7s9--9---|-7---7---10s12--12---|-12---9---7---9---|-5---0---5-------|

Bridge (dupa "Ia sa merg eu la buniciu' / Sa-i cer actele pe casa):

e-|-5---555555555---|

Comentarii

Pentru a putea vota sau adăuda comentarii, e nevoie să te autentifici sau înregistrezi .