Ștefan Hrușcă – Colindul Ardealului

(5 voturi)

Contribuție:  rasgeado


                                                                    
    Tu Ardeal              tu Ardeal              Îți   sun tem oș-
E||------------0---------|------------0---------|-------0---------2----|
B||------------0---------|------------0---------|-------1---------3----|
G||-------0---------0----|-------0---------0----|-------0---------2----|
D||----------------------|----------------------|------------0---------|
A||----------------------|----------------------|--3-------------------|
E||--0-------------------|--0-------------------|----------------------|


                                                                 
teni                     Templu sfânt,          templu sfânt
------------0---------|------------0---------|------------0---------|
------------0---------|------------0---------|------------0---------|
-------0---------0----|-------0---------0----|-------0---------0----|
----------------------|----------------------|----------------------|
----------------------|----------------------|----------------------|
--0-------------------|--0-------------------|--0-------------------|


                                                                   
 Mun  ții  A -   pu      seni                     Că tu ne ești 
-------0---------2----|------------0----------||-------------3---------|
-------1---------3----|------------0----------||-------------0---------|
-------0---------2----|-------0---------0----*||*-------0---------0----|
------------0---------|----------------------*||*----------------------|
--3-------------------|-----------------------||-----------------------|
----------------------|--0--------------------||---3-------------------|


                                                                
vatra                  Și din piatră          piat     - ra
------------2---------|------------0---------|------------0---------|
------------3---------|------------1---------|------------0---------|
-------2---------2----|-------2---------2----|-------0---------0----|
--0-------------------|----------------------|----------------------|
----------------------|--0-------------------|----------------------|
----------------------|----------------------|--0-------------------|


                                                                  
E tăria                  unui      neam de     moți
------------0---------|------------2---------|------------3---------|
------------1---------|------------3---------|------------0---------|
-------0---------0----|-------2---------2----|-------0---------0----|
----------------------|--0-------------------|----------------------|
--3-------------------|----------------------|----------------------|
----------------------|----------------------|--3-------------------|


                                                     
              (repetare)  Horea  nostru-i         risipit pe                
------------3----------||------------0---------|------------2---------|
------------0----------||------------1---------|------------3---------|
-------0---------0----*||-------0---------0----|-------2---------2----|
--0-------------------*||----------------------|--0-------------------|
-----------------------||--3-------------------|----------------------|
-----------------------||----------------------|----------------------|


                                             
roți
------------0---------|------------0---------||
------------0---------|------------0---------||
-------0---------0----|-------0---------0----||
----------------------|--2-------------------||
----------------------|----------------------||
--0-------------------|----------------------||

                               
Tu Ardeal, tu Ardeal, îți suntem oșteni,
                                  
Templu sfânt, templu sfânt, munții Apuseni.
                                 
Că tu ne ești vatra și din piatră-n piatră,
                    
E tăria unui neam de moți,
                                   

Asta-i țara noastră, noi nu stăm în gazdă,
                        
Horea nostru-i risipit pe roți.

Ne-au furat barbarii, ne-au lovit mai marii,
Dar avem în piepturi șapte vieți.
Ne vibrează-n sânge, pân' la Putna plânge,
Clopotul ce bate la Râmeți.

Unde-i Avram Iancu, sa mai frângă rangul,
Celor ce Ardealul vor pustiu.
Iată că răsare Iancu din oricare,
E-n puterea fiecărui fiu.

Nu vrem răzbunare, dar atât ne doare,
Că se pierde amintirea-n val.
Doamne dă-i tărie, unei mâini să scrie,
Biblia latinului Ardeal.

Pentru această țară, poate să și moară,
Fiecare dintre noi râzând.
Restul e dorință, de îngăduință,
Și sa fie pace pe pământ.

Nu uitați aceasta, dreapta ne e brazda,
Ce-am lucrat cu ale noastre mâini.
Fiecare munte știe aici să cânte,
Imnul "Deșteptați-vă, români".

Ultima actualizare:  27.12.2008

Comentarii

Pentru a putea vota sau adăuda comentarii, e nevoie să te autentifici sau înregistrezi .

Acorduri