Florin Chilian – Chiar dacă

(54 voturi)

Contribuție:  rasgeado


Am îmbunătăţit şi aici acordurile puţin... Atenţie, luaţi D6 nu din 
definiţie, ci din legenda de la sfârşitul tabului (sau chiar D simplu pentru
începători), aia e o inversiune mai potrivită pt această melodie. 
Cadd9 e opţional.

Capo pe I

intro (pentru cine cântă în duet):

                                                    
E||-----------------------|-----------------------|--------------------|
B||-------0--1----0-------|-------0--1----0-------|-------0--1----0----|
G||-----------------------|-----------------------|--------------------|
D||-----------------------|-----------------------|--------------------|
A||-----------------------|-----------------------|--------------------|
E||--3--------------------|--3--------------------|--0-----------------|

                           
-----------------------|-----------------------|-----------------------|
-------0--1----0-------|-------1--3----1-------|-------1--3----1-------|
-----------------------|-----------------------|-----------------------|
-----------------------|-----------------------|-----------------------|
-----------------------|--3--------------------|--3--------------------|
--0--------------------|-----------------------|-----------------------|


                         
-----------------------|-------------------------||
-------0--1----0-------|-----------0-------1-----||
-----------------------|--------2-------2-----2--||
-----------------------|-----0-------------------||
-----------------------|-------------------------||
--3--------------------|--2----------------------||




Chiar dacă n-o mai vezi zâmbind

Chiar dacă
                          
Chiar dacă n-o mai simţi venind
   
Chiar dacă
                               
Chiar dacă nu-nţelegi cum s-a-ntâmplat


Chiar dacă n-o mai poţi suna
 
Chiar dacă
          
Chiar dacă n-o mai poţi chema
    
Chiar dacă
                                   
Doar amintirile-au rămas de-atunci cu voi

solo


Chiar dacă nu-i mai poţi vorbi
   
Chiar dacă
                   
Chiar dacă n-o poţi întâlni
    
Chiar dacă
                         
Chiar dacă toată lumea e-ntre voi

                  
Chiar dacă el   nu-i vinovat
                       
Chiar dacă ştii şi n-ai uitat
                                         
Chiar dacă lumea s-a-mpărţit stupid la doi
                     
Chiar dacă viaţa v-a speriat
                       
Chiar dacă ştii, el n-a uitat
                       
Şi telefonul sună, sună mereu

              
Ce mult te-a iubit
               
Ce mult te-a iubit
              
Ce mult te-a iubit
                  
Cât te-a iubit de mult

               
Chiar dacă nu te vede
    
Chiar dacă
                            
Chiar dacă nu mai crede
    
Chiar dacă
                        
Chiar dacă nu mai ştie unde eşti


Chiar dacă 

O mai vezi trecând
   
Chiar dacă 
           
La braţ cu soţul ei mergând
   
Chiar dacă
                      
Din când în când priveşti înapoi

             
Ce mult te-a iubit
             
Ce mult te-a iubit
             
Ce mult te-a iubit
                  
Cât te-a iubit de mult

Cadd9:   x32030
Em7:  022030
Am7:  002010
D6:   20020x
Am/B: 022210
Em/B: x22000

Blues  

Ultima actualizare:  27.09.2018

Comentarii

Pentru a putea vota sau adăuda comentarii, e nevoie să te autentifici sau înregistrezi .

Acorduri