Florin Chilian – Iubi

(13 voturi)

Contribuție:  rasgeado


Tablature Legend
----------------
L - tied note
(n) - ghost note
> - accentuded note
h - hammer on
p - pull off
s - legato slide
/ -  slide into from below or out of upwards
^ - brush up
v - brush down

D/B:  x20232
Em/G: 022003

Intro (si background guitar) midi:

     A
E||--9----L-----9h--10--|--9----------------|--9----L----L----|
B||--9----L-------------|-----10------------|--9----L----L----|
G||--9----L-------------|---------9---------|--9----L----L----|
D||---------------------|-------------------|-----------------|
A||---------------------|-------------------|-----------------|
E||---------------------|-------------------|-----------------|


                                        >                   
------------------|-----------------|--/2-----L------------|
--2s----3----5----|--2----L----L----|--------(3)-----------|
------------------|--2----L----L----|---------------(2)----|
------------------|-----------------|----------------------|
--0---------------|--0--------------|----------------------|
------------------|-----------------|----------------------|

                                           D/B
   >                      >         >       ^                             ^     
--/3-----L------------|--/5---------0----|--2----L----L----|--2h--3--3----2----|
--------(3)-----------|------------------|--3----L----L----|--3-----------3----|
---------------(2)----|------------------|--2----L----L----|--2-----------2----|
----------------------|------------------|--0----L----L----|--0-----------0----|
----------------------|------------------|--2----L----L----|--2-----------2----|
----------------------|------------------|-----------------|-------------------|


                              ^                             
--L---------2----|--3--------------|-----------------------|
--L--------------|-------5----3----|----------------(3)----|
--L--------------|------------2----|---------(2)-----------|
--L--------------|------------0----|--(0)------------------|
--L--------------|------------2----|-----------------------|
-----------------|-----------------|-----------------------|
 
                                                    G
                ^                 ^       ^    ^    ^                ^         
---------------------|-----------------|-----------------|--3--3--3--3s--5----|
---------------------|-----------------|-----------------|--0--0--0--0---0----|
--(2)----------------|-----------------|-----------------|--0--0--0--0---0----|
---------(0)---------|-----------------|-----------------|--------------------|
----------------2----|--L----L----0----|-----------------|--------------------|
---------------------|-----------------|--0----2----3----|--------------------|
                         
                             Em/G
--3--L--3p--2--3----|-------/5----3--L--|--2----3---------|-----------------|
--0--L--0------0----|--------0----0--L--|--0----0---------|-----------------|
--0--L---------0----|--------0----0--L--|-------0---------|-----------------|
--------------------|-------------------|-----------------|-----------------|
--------------------|-------------------|-----------------|-------2---------|
--------------------|-------------------|-----------------|-----------------|

 
                                     F#
-----------------|-----------------|-----------------|-------0----L----|
-----------------|-----------------|-----------------|--2--------------|
-----------------|-----------------|--3----L----3----|-----------------|
-------2---------|------------2----|--4----4----L----|-----------------|
-----------------|--2--------------|-----------------|-----------------|
-----------------|-----------------|--2--------------|-----------------|


  G                             F#
-------5--3--5p--3--|-----------------|-----------------|-------2----L----||
--------------------|--5--------------|-------2---------|-----------------||
--4----------L---L--|------------3----|------------3----|-----------------||
--5----L--L--L---L--|------------4----|-----------------|--4--------------||
--5----L--L--L---L--|-----------------|-----------------|-----------------||
--3----L--L--L---L--|------------2----|-----------------|-----------------||


A                           D 
Iubi, ne-a topit pe toţi oraşul
  D/B              Bm
A fugit chiar şi arcaşul
  D/B                A
Nimeni nu mai vrea nimic

Iubi, iubi
Hai la mare să fugim
să-i fentăm pe toţi poeţii
Să ne facem că vâslim

Iubi...iubiii
I-a tampit pe toti caldura, 
Sta primarul - casca gura
Fara balta nu-i la fel

Iubi...Iubi...
Ia cu tine numai slipul.
Hai sa numaram nisipul
Restul totul e topit

Iubi..iubi..

Judy, neagro! Ca de-aia nu te ia nimeni

Iubi, iubi..ai ai ai ai ai ai 
Instinct de gospodina
Simt ca vine luna plina..
Daca nu plec ma transform

Iubi, iubi, 
Nu cred ca ai vrea sa stii
Ce se-ntampla cand e noapte
Cand trotuarele e vii

Iubi 
Se mira toti arhitectii 
Ca se prabusesc peretii
Adu' berea ca lesin

Iubi..taica-tu te vrea mireasa, 
Zice ca sa-ti faca casa
Fug la mare ma salvez!

Iubi..urato, judy neagro..ca de-aia nu te ia nimeni

Iubi, ma transform!

Blues  

Pentru a putea vota sau adăuda comentarii, e nevoie să te autentifici sau înregistrezi .