Alexandru Andrieș – Nu-l dau pe azi pentru maine

(2 voturi)

Contribuție:  sorin_s


                            
In fereastra-i cerul inramat,
                       
In odaie am scaun si pat
                           
Si pe masa alba, niste paine.
                              
Lucrurile-mi sunt in geamantan,
                                  
Praful nu l-am sters de-acum un an,
                               
Dar nu-l dau pe azi pentru maine!

Calendarul din perete-i vechi
Si pe covorul vested, cu ciucuri neperechi,
Sunt firimituri uscate de paine.
Am si doua crapaturi in geam
Si m-a parasit fata ce-o iubeam,
Dar nu-l dau pe azi pentru maine!

                                            
Ieri m-am intalnit pe scari cu un om ciudat,
                                                   
M-a-ntrebat: "De ce te zvarcolesti noaptea in pat ?
                                                
Stii, parchetul e subred si se-aude pana-n baie,
                                               
Imi trezesti copiii care dorm in odaie, dorm..."

Pe tavan un cerc e, de lumina,
N-am perdea la geam, luna mi-e vecina,
Si pe masa alba, niste paine.
Singur cand raman, cateodata,
Mai mi-aduc aminte de-un nume de fata,
Dar nu-l dau pe azi pentru maine !


   G             G7            C             Cm
e|--3------3------3------3------3------3------3------3--|
B|-----0------0------0------0------1------1------0------|
G|----0-0----0-0----0-0----0-0----0-0----0-0----0-0-----|
D|-0------0------3------3------2------2------1------1---|
A|------------------------------------------------------|
E|------------------------------------------------------|

       G             D7            G
e|------3------3------2------2------3------3----------3-|
B|--0------0------0------1------1------0------0---------|
G|-0-0----0-0----0-0----2-2----2-2----0-0----0-0--------|
D|-----0------0------0------0------0------0------0-2-0--|
A|------------------------------------------------------|
E|------------------------------------------------------|
E|------------------------------------------------------|

Blues  

Ultima actualizare:  14.11.2008

Comentarii

Pentru a putea vota sau adăuda comentarii, e nevoie să te autentifici sau înregistrezi .

Acorduri