Mihai Mărgineanu – Orogeiane

(2 voturi)

Contribuție:  Lalu


Versurile sunt le-am scris cat de corect am putut, desi nu stiu bine rromani.
Daca ar putea cineva sa ma corecteze, ar fi perfect :D, dar melodia este scrisa corect.

Intro: arpegiu liber pe Em de la inalte la joase, apoi Em 
(ascultati melodia si va dati seama ce zic).
Se repeta de-a lungul intregii melodii:

                Am
e-|-----------------0-------0-------0-------0---|
B-|-----------------1-------1-------1-------1---|
G-|-----------------2-------2-------2-------2---|
D-|-----------------2-------2-------2-------2---|
A-|-------------0---0-------0---0---0-------0---|
E-|-0---2---3-------0---0---0-------0---0---0---|

    Em
e-|-----0-------0-------0-------0---|
B-|-----0-------0-------0-------0---|
G-|-----0-------0-------0-------0---|
D-|-----2-------2-------2-------2---|
A-|-----2---2---2-------2---2---2---|
E-|-0---0-------0---0---0-------0---|

    B
e-|-----2-------2-------2-------2---|
B-|-----3-------3-------3-------3---|
G-|-----3-------3-------3-------3---|
D-|-----3-------3-------3-------3---|
A-|-2---2-------2---2---2-------2---|
E-|-----2---2---2-------2---2---2---|

    Em
e-|-----0-------0-------|
B-|-----0-------0-------|
G-|-----0-------0-------|
D-|-----2-------2-------|
A-|-----2---2---2-------|
E-|-0---0-------0---0---|

La la la... 
Orogeiane, orogeian gitano lichavolo italele, 
Orogeiane, orogeiane da y pro djabamue. 
Arikadai, arkatai romales, hihasuya, patarete, 
Sarelove, (sarelove), ai sarelov da y pro djabamue. 
La la la... 
Ai dremoskla, ai dremosk vachavoro, libaya mya, 
Ego zeonayu, ego zeonayu pastre lomya vayo. 
La la la...

Pentru a putea vota sau adăuda comentarii, e nevoie să te autentifici sau înregistrezi .