Ada Milea – Greierele si furnica

(11 voturi)

Contribuție:  Nicusor Arsene


                                           
e|-------0------------1------------3------------0---------
B|-----1---1--------3---3--------3---3--------1---1-------
G|---2-------2----2-------2----0-------0----0-------0-----
D|--------------0-----------------------------------------
A|-0--------------------------------------0---------------
E|---------------------------0----------------------------

                               
e|-------0------------1------------3-----------
B|-----1---1--------3---3--------3---3---------
G|---2-------2----2-------2----0-------0-------
D|--------------0------------------------------
A|-0--------------------------------------0----
E|---------------------------0-----------------


Surioara..

   
N-am..

                                       
Am venit sa mi dai si mie pan' la  primavara..


N-am..
                              
Un graunte ai o mie , pan' la primavara..

                      
N-am , n-am , n-am, n-am.

                                                             
Dar toata lumea stie, pan' la primavara.. la primavara.. la  prima'

                
N-am , n-am, n-am !


e|-------0-0-------0-0---------
B|-------1-1-------1-1---------
G|-------2-2-------2-2--------- 
D|----------------------------- .....
A|-----0---------0-------------
E|-0-3-------0-3-------0-3-----

Asta vara ce-ai facut?!
Asta vara ce-ai facut?!
AMsta vara ce-ai facut?!
Am cantat..
Acuma joaca!
Mi-e foame c-as juca..
Joaca!
Nu ma enerva
Joaca!
Nu ma enerva.. ca-s nervos
Imi dai ori ?!..

Si-agatand vioara-n grinda...
Greieru-nsfaca furnica,  (acum se schimba acordul)

e|---1-1-------1-1------
B|---3-3-------3-3------
G|---2-2-------2-2------
D|-0---------0----------  .....
A|-------0-3-------0-3--
E|----------------------

Si-a batut-o zdravan vere..
Apoi s-a facut tacere..
Amandoi stateau ca muti
Ei ! Acuma ma-nprumuti ?
(surioara) Cu placere.. :*

  (si se repeta iar prima parte)

Folk  

Comentarii

Pentru a putea vota sau adăuda comentarii, e nevoie să te autentifici sau înregistrezi .

Acorduri