Chester – Kiki

(1 voturi)

Contribuție:  ghit razvan


INTRO

     G5     B5         E5       C5  
e|------------------------------------|
B|------------------------------------|
G|----------------------9--------5----|X 1
D|----5------9----------9--------5----|
A|----5------9----------7--------3----|
E|----3------7------------------------|


|-------------------------------------------|
|----------------------9----11---12----5----|
|----5------9----------9----x----x-----5----|X 2
|----5------9----------7----9----10----3----|
|----3------7-------------------------------|


G5                   B5 
Kiki e colega mea de antrenament
           E5
Iar cand o vad cum face sfoara

Nici nu simt cum trece seara
C5                G5
Si o privesc asa insistent
                      B5                      
Imi place sa o vad in kimono
      E5
Ea nu stie c-o privesc

Si nu stie c-o doresc
C5                    G5
Dar o sa afle va spun io.



PARTEA DE INTRO DIN NOU



Ma gandesc de mult sa-i scriu ceva
Poate o piesa mai concret
Ca sa vina la concert
Si in felul asta va afla
Sa scriu aceste randuri imi e greu
Fiindca stiu ca nu ii pasa
Ea doar tace, zice lasa
Si din aceste motive, eu...


C5                D5
Nu stiu ce sa mai fac
            G5
Sa-i fac pe plac
C5                    D5
Kiki vreau sa stii ca eu
             G5
Voi fi aici mereu
                        D5
Cand ai nevoie de vreun sfat
                E5
Sa fiu primul intrebat
                C5
Sa te ajut sa intelegi
                 G5
In continuare sa alegi
                           D5
Un singur lucru vreau sa-ti spun
                       E5
Voi incerca sa fiu mai bun
                   C5
Intr-un final sa reusesc
        D5
Sa-ti dovedesc
           C5
In fiecare zi, eu te visez Kiki.


PARTEA DE INTRO DIN NOU


Eu nu stiu ce sa mai fac
Sa-i fac pe plac
Kiki vreau sa stii ca eu
Voi fi aici mereu
Cand ai nevoie de vreun sfat
Sa fiu primul intrebat
Sa te ajut sa intelegi
In continuare sa alegi
Un singur lucru vreau sa-ti spun
Voi incerca sa fiu mai bun
Intr-un final sa reusesc
Sa-ti dovedesc
In fiecare zi, eu te visez Kiki.

Have fun...dak nu intelegeti ceva sau aveti ceva sugestii --> pe mail

Pentru a putea vota sau adăuda comentarii, e nevoie să te autentifici sau înregistrezi .