Alternosfera – Wamintirile

(5 voturi)

Contribuție:  metallurgic


|--------------------------------------------
|--------------------------------------------
|--7----9----7----9---------7----------------
|--9----9----9----9---------7----------------
|--7----7----7----7---------5----------------
|--x----x----x----x---------x----------------

   | ------- >              | ------------ >


|--------------------------------------------
|--------------------------------------------
|--7----9----7----9---------6----------------
|--9----9----9----9---------7----------------
|--10---10---10---10--------7----------------
|--x----x----x----x---------5----------------

   | ------- >              | ------------ >



I.


 Em
Numarate mi-s zilele


Ma omoara amintirile

|--7-----0------------5------0-----------
|--8-----8------------7------7-----------
|--9-----9-----------(0)----(0)----------
|--x-----x------------x------x-----------
|--x-----x------------x------x-----------
|--x-----x------------x------x-----------


 Em
M-au batut cu picioarele
Nu ma lasa sa cad peretele

|--7-----0------------5------0-----------
|--8-----8------------7------7-----------
|--9-----9-----------(0)----(0)----------
|--x-----x------------x------x-----------
|--x-----x------------x------x-----------
|--x-----x------------x------x-----------

 Em
M-au vanat si m-au vandut
Mi-au legat si-o piatra sa nu fug

|--7-----0------------5------0-----------
|--8-----8------------7------7-----------
|--9-----9-----------(0)----(0)----------
|--x-----x------------x------x-----------
|--x-----x------------x------x-----------
|--x-----x------------x------x-----------


 Am
Mi-au inchis ferestele
 C
Mi-au schimbat lacatile 


Em   ->   Em1   ->   G


Refren: (toate acordurile cu barre)
                      Em  ->  D  ->  C  -> Am
Ma omoara W-amintirile !


                      Em  ->  D  ->  C  -> Am
          W-amintirile !

II:
Numarate mi-s zilele
Ma omoara amintirile
Iarna, vara imblu beat
Gandurile-n mine tac
Ochii imi stau in televizor
Stirile dau din difuzor
Mi-am inchis ferestele
Mi-am schimbat lacatile


Refren:


III:

 Em
Ochii-mi plang in televizor
 D
Nopti intregi fara de somn
 G
Si ma-neaca lacrimile
 Am
Cand ne terorizeaza stirile
 Em
Ochii-mi plang in televizor
 Am
Nopti intregi fara de somn
 G
Si ma-neaca lacrimile
 D
Ne omoara W-amintirile ! 



Legenda:
Em = 022000
Em1= 222xxx
Am = 002210
C  = 032010
D  = 000232

acorduri cu barre:

Em = x79987
D  = x57755
Am = 577555
C  = x35533
G  = 355433

Ultima actualizare:  17.05.2008

Pentru a putea vota sau adăuda comentarii, e nevoie să te autentifici sau înregistrezi .