FurioSnails – Undeva

(5 voturi)

Contribuție:  ghit razvan


E o melodie f misto ce aduce un sentiment de vara...tabulatura zic eu ca e buna...
cantati deodata cu piesa si vedeti ca suna bine...

INTRO

Chitara I (merge si pe refren)


e|------------------------------------4---------4----|
B|--10---12-------------------------5---5------------|
G|------------p13-13-13---11------6-------6-4--------|
D|---------------------------------------------------|
A|---------------------------------------------------|
E|---------------------------------------------------|

Chitara II

     A    F#m    C#m    D 

e|---5-----2------4-----5------|
B|---5-----2------5-----7------|
G|---6-----2------6-----7------|
D|---7-----4------6-----7------|
A|---7-----4------4-----5------|
E|---5-----2-------------------|

A
Te-a lasat saratul marii,
F#m
Te-a lasat sarutul iernii
A
Doar cu umbra dupa tine
F#m          E
Mergi alene, mergi in maine

        A          F#m
Refren: Ea mai e undeva
                      C#m             D
        In lentilele verzi prin care vezi
        D
        Ca totusi...
        A         F#m
        Ea mai e undeva
                   C#m
        Pe filmul uitat
        D
        Uitat...
            A     E        F#m       C#m    D   
        Undevaaaa la la la la la
            A     E        F#m       C#m    D   
        Undevaaaa la la la la la

A
A luat cerul din fereastra
F#m
A lasat cheia in broasca
A
Si cu umbra dupa sine
F#m
A plecat sa nu mai vina.

Refren(x2):..

Comentarii

Pentru a putea vota sau adăuda comentarii, e nevoie să te autentifici sau înregistrezi .