Travka – Lumini

(3 voturi)

Contribuție:  anonim514


intro:

|----------------------------------|
|----------------------------------|
|----------------------------------|
|-----8-8--------------------------|
|---------------------------9-8----|
|-6-6-----6-6-4-6-4-6---6-6-----9--|

Strofa I:

                  
Nopti in lumini serpuind pe sosea
              
Strain pasager pierdut in multimi de trairi
                  
Am haina de mag, sunt asa de schimbat
              
Prin sufletul tau vad tot in lumini


Refren:

                                   
Nopti in lumini, cantand in lumini,pierdut pe sosea
                                   
Te invit la un film pierdut in lumini
                                   
In nopti de satin, in camera ta, cu moment de vinil
                                   
Ma pierd in lumini cu dragostea mea

Strofa II:

Am haina de mag, sunt asa de schimbat
Sunt chiar umbra ta
Am masca de drac, sunt iluzia ta
Pentru vremea cea rea


Refren:

Nopti in lumini, cantand in lumini, pierdut pe sosea
Nascut din lumini, ma pierd in lumini
Eu sunt tot ce ard
Sa mor in lumini cu dragostea mea
Sunt teama ta serpuind pe sosea

Bridge:
 G#
|--------------------------------------------------4----------------|
|----------4-4-4-------------------------------4-----4--------------|
|--------5-------6-5-------------------------4---------4------------|
|------6-----------------------------------6------------------------|
|----6---------------------------------6h8--------------------------|
|--4-------------------------6-4-6-6h9------------------------------|
                     Naiv pasager,                  

|-------------------------------------------------------------------|
|----------4-4-4----------------------------------------------------|
|--------5-------6-5------------------------------------------------|
|------6------------------------------------------------------------|
|----6--------------------------------------------------------------|
|--4-------------------------9-8-6-6-4-6-6-8-6----------------------|
                pierdut in multimi de straini

|--------------------------------------------------4----------------|
|----------4-4-4-------------------------------4-----4--------------|
|--------5-------6-5-------------------------4---------4------------|
|------6-----------------------------------6------------------------|
|----6---------------------------------6h8--------------------------|
|--4-------------------------6-4-6-6h9------------------------------|
                     Cu haina de mag, sunt asa de schimbat

|-------------------------------------------------------------------|
|----------4-4-4----------------------------------------------------|
|--------5-------6-5------------------------------------------------|
|------6------------------------------------------------------------|
|----6--------------------------------------------------------------|
|--4-------------------------9-8-6-6-4-6-6-8-6----------------------|
                     Sunt iluzia ta

                                    
Nopti in lumini, cantand in lumini, pierduti in lumini

Prin inima ta

Rock  

Pentru a putea vota sau adăuda comentarii, e nevoie să te autentifici sau înregistrezi .

Acorduri