Ultimu' Nivel – Sabia lui Zorro

(12 voturi)

Contribuție:  ghit razvan


Acorduri folosite:

                             
e|-----------------------------------------|
B|-----------------------------------------|
G|----7------------------------------------|
D|----7-------4--------5--------7------9---|
A|----5-------4--------5--------7------9---|
E|------------2--------3--------5------7---|

INTRO: D5, F#5, G5 x3   D5
     

              
Dupa 10 beri aseara
           
M-am prabusit
       
Norocul meu a fost
       
Ca nu m-am lovit

Restabilind controlul
De-o fata m-am indragostit
Dar brusc m-am linistit
Cand mi-a zambit

BRIDGE:

         G         A         D
e  | ----3---------0----------2-2h3-2---------|
B  | ----0---------2----------3-------3---0---|
G  | ----0---------2----------2---------2-----| 
D  | ----0---------2----------0---------------|
A  | ----2---------0--------------------------|
E  | ----3------------------------------------|


G   A    D
Dar nu regret
G       A            D 
Ca m-am despartit de ea
G5  A5     D5   B5
Dac-am s-o intalnesc
G5      A5    D5 
Am sa-i spun asa:


                                  
Ref:Eu sunt mai tare ca sabia lui Zorro
                                       
    Intru calare-n bar pe calul din Malboro
            
    Si nu ma pierd 
                  
    Cand spre tine alerg


Era intr-o zi de vara
Terasa ma chema la ea
Si fata ce ma placea
Ma astepta

M-astepti cand soarele apune
Sa te rapesc
Asteapta mult si bine
N-am sa sosesc


Ref:Pentru ca sunt mai tare ca sabia lui Zorro
    Intru calare-n bar pe calul din Malboro
    Si nu ma pierd
    Cand spre tine alerg

Ultima actualizare:  12.11.2009

Comentarii

Pentru a putea vota sau adăuda comentarii, e nevoie să te autentifici sau înregistrezi .

Acorduri