Travka – Corabia Nebunilor

(4 voturi)

Contribuție:  anonim642


Intro:

e||-10-------10-------10-10-|--9--------9--------9--9-|
B||-10-10-10-10-10-10-10-10-|-10-10-10-10-10-10-10-10-|
G||-------------------------|-------------------------|
D||-------------------------|-------------------------|
A||-------------------------|-------------------------|
E||-------------------------|-------------------------|

e||-10-------10-------10-10-|-12-12-12-12--9--9--9--9-|
B||-12-12-12-12-12-12-12-12-|-12-12-12-12-10-10-10-10-|
G||-------------------------|-------------------------|
D||-------------------------|-------------------------|
A||-------------------------|-------------------------|
E||-------------------------|-------------------------|

Vers:

e||-------------------------|-------------------------|
B||-------------------------|-------------------------|
G||--5-5--------------------|-------------------------|
D||--5-5--------------------|-5-5---------------------|
A||--3-3--------------------|-5-5---------------------|
E||-------------------------|-3-3---------------------|

e||-------------------------|-------------------------|
B||-------------------------|-------------------------|
G||-------------------------|-5-5---------------------|
D||--7-7--------------------|-5-5-----3-3/5-5---------|
A||--7-7--------------------|-3-3-----3-3/5-5---------|
E||--5-5--------------------|---------1-1/3-3---------|

Refren:

e||-------------------------|-------------------------|
B||-------------------------|-------------------------|
G||-----5-5-5-5-5-5-5-5-----|-------------------------|
D||-----5-5-5-5-5-5-5-5-----|-----5-5-5-5-5-5-5-5-----|
A||-----3-3-3-3-3-3-3-3-----|-----5-5-5-5-5-5-5-5-----|
E||-------------------------|-----3-3-3-3-3-3-3-3-----|

e||-------------------------|-------------------------|
B||-------------------------|-------------------------|
G||-------------------------|--5-5-5-5----------------|
D||-----3-3-3-3-3-3-3-3-----|--5-5-5-5----7---5-------|
A||-----3-3-3-3-3-3-3-3-----|--3-3-3-3----7---5-------|
E||-----1-1-1-1-1-1-1-1-----|-------------5---3-------|

Solo:
( nu cred ca este tocmai corect,
n-am reusit sa imi dau seama cum este exact )

e||-------------------------|-------------------------|
B||-------------------------|-------------------------|
G||-------------------------|-------------------------|
D||------3-----3---3---3/7--|------7-----7---7---7\5--|
A||--5-5---5-5---5---5------|--9-9---9-9---9---9------|
E||-------------------------|-------------------------|

e||-------------------------|-------------------------|
B||-------------------------|-------------------------|
G||-------------------------|-------------------------|
D||------5-----5---5---5/9--|---9-----------10--12----|
A||--7-7---7-7---7---7------|-11-11-11/12-12--12--12--|
E||-------------------------|-------------------------|

Rock  

Ultima actualizare:  15.05.2008

Pentru a putea vota sau adăuda comentarii, e nevoie să te autentifici sau înregistrezi .