Alexandru Andrieș – Nu-l dau pe azi pentru maine

(6 voturi)

Contribuție:  tudor americanu


[Intro]
                                           
----3---------3----------3---------3-----------3----------3
--------3-3-------3-3-------3-3--------3-3--------1-1---------1-1
--0----0-0--0----0-0-------0-0--------0-0--------0-0---------0-0-
-----------------------3---------3----------2----------2---
-----------------------------------------------------
-----------------------------------------------------

  tot                                  
---3---------3--------3--------3--------3--------3--------3-------
------1-1-------1-1------0-0------0-1------1-1------1-0------0-1---
-----0-0-------0-0------0-0------0-0------2-2------2-2------0-0----
-2--------2---------0--------0--------0--------0--------0----------
-------------------------------------------------------------------
-------------------------------------------------------------------

                                                  in fereast....
---3--------3--------3--------3-------|---3------------------
------1-0---------------0-0-----------|-------3-3- si mai departe--
-----0-0---------0-----0-0----------0-|-0----0-0-----tot ashe----
-0--------0---0h2--0--------0----0h2--|----------------------------
--------------------------------------|-----------------------------
--------------------------------------|-----------------------------

apres, viens cette:
ieri m-am intalnit pe scari cu-n om ciudat, si ma-n-trebat?
(Incepeti pe C, apoi G, repetind C-G de citeva ori, dupa care vine A7, D7, si inapoi la G

Ieri m-am intiln....
                    
----3--------3--------3--------3--------|------------------
-------1-1------1-1------0-0------0-0---|---------
------0-0------0-0------0-0------0-0----|--acesta portiune----
-2---------2--------0---------0---------|---se repeta de citeva 
----------------------------------------|---ori pana cind Alex zice:----
----------------------------------------|-------------------

Imi trezesti copii, care-mi dorm in odaie, Doooooooooooorrrmm
   A7
---3-------3--------3--------3--------3--------3---------3-------------3
------2-2-----2-2------1-1------1-1------1-1------1-1-------0-0--------  0 0
-----0-0-----0-0------2-2------2-2------2-2------2-2-------0-0------0---0 0
--2-------2--------0--------0--------0--------0---------0--------0h2-0-
-----------------------------------------------------------------------

Acum inapoi la primu piscat (este tabulat mai sus, daca n-ati vazut pina acuma)
----------------------------------------

Blues  

Ultima actualizare:  07.12.2008

Comentarii

Pentru a putea vota sau adăuda comentarii, e nevoie să te autentifici sau înregistrezi .

Acorduri