Fără Zahăr – Fara zahar

(7 voturi)

Contribuție:  generalDona


in rifu' asta consta toata melodia, foarte simpla de altfel. 

|----------------------------------------------------|
|--------1-----------1----------1---------1----------|
|--------2-----------2----------2---------2----------|
|---------------------------3------------------------|
|-----0----------0~-----2-3--------3-2-0----------0--|
|-0-0--------0-0------------------------------0-0----|

         the solo:

|-5-5s10--10s6--6s8-5-------------------------|
|-5-5s10--10s6--6s8-5-------------------------|
|---------------------------------------------|
|---------------------------------------------|
|---------------------------------------------|
|---------------------------------------------|

Comentarii

Pentru a putea vota sau adăuda comentarii, e nevoie să te autentifici sau înregistrezi .