Gândul Mâţei – Lora

(6 voturi)

Contribuție:  generalDona


Nu stiu cat din asta se aseamana cu originalul, deoarece am
realizat transpunerea ascultand un cover, sper sa nu fie mari diferente 
si sa nu se supere nimeni daca am gresit.

                                                    
|-1------1------1------0h1p0-0--------------------------
|---3------3------3------------1------------1-----1-----
|-----2------2------2------------0----0-------0-----0---
|---------------------------------------2-------2-----2-
|-----------------------------------3-----3-------------
|-------------------------------------------------------
                         
|-1------1-----1------0h1p0------0-----------------------------------
|---3------3-----3----------1------1---1-----------------1-----------
|-----2------2-----2----------0------0---0----0------0-----0---0-----
|-------------------------------2----------2----2------2-----2---2---
|--------------------------------------------------3---------------3-
|--------------------------------------------------------------------

    
|-1-1-3-0-----0---------------------------------------
|-3-3-3-1-------1-----1-------3-----3------2-------2-- dupa asta 
|-3-2-0-2---------2-----2-------3-----3-------2----2--treceti la vers
|-3-0-0-2-----------2-----2-------3-----3-------2--2--care e la fel
|-1---2-0-----0---------------1------------0-------0-- ca intro
|-----3-----------------------------------------------

   acum supara-te pe acordurile estea
|-5-----1------------
|-6--5--3--5---------
|-7--5--3--5---------
|-7--5--3--3---------
|-5--3--1--3---------
|-5------------------

|-----------------------------------------------
|-----------------------------------------------
|--7--9-10-7---7--9-10-7------3-5-7-3--5-3-2---- restu il ghiciti voi
|------------------------10---------------------
|-----------------------------------------------
|-----------------------------------------------

Ultima actualizare:  20.04.2008

Comentarii

Pentru a putea vota sau adăuda comentarii, e nevoie să te autentifici sau înregistrezi .

Acorduri