Ada Milea – Ratata

(8 voturi)

Contribuție:  generalDona


                        
|--------------------------------3-------|
|-------1--------1--------1--------3-----|
|-----------------------2------------0---|
|----2---------2----0-3-----0------------|
|--3-------2-0----------------2----------|
|----------------------------------------|

                         
|---------------------------------3------|
|------1---------1--------1--------------|
|-----------------------2----------------|
|----2--------2-----0-3------------------|
|--3------2-0----------------0-2---------|
|----------------------------------------|

Foarte simpla melodia si una din preferatele mele de la Ada Milea. D

Folk  

Comentarii

Pentru a putea vota sau adăuda comentarii, e nevoie să te autentifici sau înregistrezi .

Acorduri