Praf în Ochi – O mie de ganduri (GuitarPro solo)


     S  S E  E  E  E  E   E  E     E  Q    E     Q    Q     
E||-----------------------------|--------------------------|
B||----------------7--7h--8--8--|--L--L----8--8g10----7----|
G||----------9--9---------------|--------------------------|
D||-------9---------------------|--------------------------|
A||--7h-9-----------------------|--------------------------|
E||-----------------------------|--------------------------|


  Q.     Q    E  E  E     E   Q    E  E   E  E  E     Q     E  Q    E  E  E   
-----------------------|---------------------------|-------------------------|
--L------8----7--7--5--|--5p--3--------------------|-------------------------|
-----------------------|-----------2--2h--4--4--4--|--L----/9--9----7--7--L--|
-----------------------|---------------------------|-------------------------|
-----------------------|---------------------------|-------------------------|
-----------------------|---------------------------|-------------------------|


  E   Q    E  E   E  E  E     Q.     S  S  Q.     E     E  H.           E    
---------------------------|-------------------------|---------------------||
---------------------------|-------------------------|---------------------||
--5p--4----0--0h--2--2--2--|--L------0h-2h-4------2--|--4--9------------L--||
---------------------------|-------------------------|---------------------||
---------------------------|-------------------------|---------------------||
---------------------------|-------------------------|---------------------||

Rock  

Comentarii

Pentru a putea vota sau adăuda comentarii, e nevoie să te autentifici sau înregistrezi .