Holograf – Balada controlorului

(3 voturi)

Contribuție:  anonim120


intro:
e|------------------------------|
B|------------------------------|
G|------------------------------|
D|------7-9/11p9-7-9p7---7-7-9--|
A|--7-9----------------9--------|
E|------------------------------|

e|---------------------------------|
B|---------------------------------|
G|---------------------------------|
D|------7-9/11p9-7-9p7---7-7-------|
A|--7-9----------------9-----9-----|
E|---------------------------------|

e|-----------------------------|
B|-----------------------------|
G|-----------------------------|
D|------7-9/11p9-7-9p7---7-7-9-|
A|--7-9----------------9-------|
E|-----------------------------|

e|----------------------------------|
B|----------------------------------|
G|----------------------------------|
D|-------7-9/11p9-7-9-----7---------|
A|---7-9--------------7-9-7---------|
E|----------------------------------|



Strofa:

Te trezesti la 6 fara un sfert
                                
Si iti dai seama c-ai intarziat
Iti pui rapid puloverul pe dos
Cafeaua nu ti-o mai bei in pat

bridge:
                
  Si alergi dupa masina
                
  Si te urci intr-un picior
                
  Compostorul e departe
                  
  Si cand nu te-astepti, apare-un controlor 

Ref:
                              
  Ai bilet? Ba nu, ba da, ba nu, ba da


Daca esti norocos si scapi de controlor
Si rasufli din plin usurat
Si promiti ca nu se va mai intampla
SI-altadata bilet sigur iti vei lua

bridge:
  Dup-o statie sau doua 
  Vine iar un controlor
  Si cu vocea lui suava
  Iti sopteste-ncet, suspinand usor

Ref:

solo:
 

e|-----------------------------------------|
B|--/5-2-----------------------------------|
G|-------2-2/4\2---2----------------------|
D|---------------4------/4-4-2-------------|
A|-----------------------------4-/4-0-/4-0-|
E|-----------------------------------------|

e|------------------5--2----/9p7------------------|
B|--/5-2-------2-5--5--2---------/10-10~~---------|
G|--------2-2/4------------------------------------|
D|------------------------------------------------|
A|------------------------------------------------|
E|------------------------------------------------|


e|--8/9-----8/9----------------------<12>-|
B|------10------10-10\--7--5--2--5\-----|
G|----------------------6--4--2--4\------|
D|----------------------------------------|
A|----------------------------------------|
E|----------------------------------------|

e|---9-------------------|
B|--12---10\------------|
G|-----------------------|
D|-----------------------|
A|-----------------------|
E|-----------------------|


bridge:

 Ref:

Pop-Rock  

Pentru a putea vota sau adăuda comentarii, e nevoie să te autentifici sau înregistrezi .

Acorduri