E.M.I.L. – Copacii infloriti (solo)

(6 voturi)

Contribuție:  generalDona


^ = bend
    / = slide
|-----------------------------------------------------------
|-----------------------------------------------------------
|---16-16-16/14-14/12-12/11---12-11-12-14-12-11--12-11------
|-----------------------------------------------------------
|-----------------------------------------------------------
|-----------------------------------------------------------

|--------------------------------------------------
|--------------------------------------------------
|---16-16-16/14-14/12-12/11---9-7-9-11-12-11-9-----
|----------------------------------------------12--
|--------------------------------------------------
|--------------------------------------------------

|-------------------------------------------------------
|-------------------------------------------------------
|---9-7-9-11-12-11-9-7---7-9--7--12-11----------9--11^--
|----------------------9---------------12-11-12---------
|-------------------------------------------------------
|-------------------------------------------------------

|--------------------------------------------------------|
|--------------------------------------------------------|
|---16-16-16/14-14/12-12/11------7------------11--9---7--|
|-----------------------------9-----7--11--12------------|
|--------------------------------------------------------|
|--------------------------------------------------------|

        Cam asa e. Sunt sigur ca nu am gacut nici o greseala majora...
 Acordurile pe care se poate canta solo-ul asta nu le stiu, poate le gasiti
unu si le puneti.

Ultima actualizare:  30.04.2008

Pentru a putea vota sau adăuda comentarii, e nevoie să te autentifici sau înregistrezi .