Trooper – Un loc

(3 voturi)

Contribuție:  generalDona


Am postat doua variante: 1. pt electrica, 2. pt acustica
 
1. 
  rifu principal
|--------------------------------------------------
|--------------------------------------------------
|---7-------4---------4--------7-6----7-6---7-6----
|---7--7----4--4---2--4-----7-------7------7-------
|---5--7----2--4---2--2-----7----------------------
|------5-------2---0--------5----------------------
 
  inainte de solo cantat rifu asta
|---------------------------------------------------
|---------------------------------------------------
|--7-----------------4--7---------------------------
|--7--7--x-x-5-4-2---4--7--7-----4-4-4-4-4-4-4-4----
|--5--7--x-x-5-4-2---2--5--7-----4-4-4-4-4-4-4-4----
|-----5--x-x-3-2-0---------5-----2-2-2-2-2-2-2-2----

|-----|
|-----|= cu asta incheiati...
|--4--|
|--4--|
|--2--|
|-----|
        dupa cum vedeti solo-ul lipseste, va dati seam ca nu se poate 
reproduce asa ceva pe o acustica... mai greu 
-------------------------------------------------------------------------

 Acum varianta pt. acustica
2.
|-----------------------------------------------
|--3---2---3---2---0---3---2--3-2---3-2---3-2---
|--2---2---4---2---0---4---2------2-----2-------
|--0---2---4---4---2---4---2------2-----2-------
|------0---2---4---2---2---0--------------------
|--------------2---0----------------------------
 Nota: loviti de vreo 3 ori un acord inainte de a trece la urmatorul,
faceti o bataie care sa se potriveasca cu ritmul melodiei, sau experimentati cum vreti.



 Aici am pus un rif care puteti sal faceti in loc de solo...
suna decent, insa trebuie sa puneti pe careva sa cante acordurile pe fundal.

|-----------0-2----2-3-2h3p2-----|--------------------------
|------3--------3------------3---|---------0-2-------2h3p2--
|----2---2---------------------2-|-----2-------2----2-------
|--0-----------------------------|---2---2--------2---------
|--------------------------------|-0------------------------
|--------------------------------|--------------------------

|----------------------------------------------------------------------|
|--------3------------------------------0---------------3----2h3p2-----|
|------4---4--------------2---------------0-----------4------------2---|
|----4-------4---4------4---4-------2-------2--2----4-------2--------2-|
|--2-----------2------4-------4---2-----------2---2-------0------------|
|-------------------2-----------0--------------------------------------|

    Greseli nu cred ca sunt, cel mult sa fie ceva diferit... da merge si 
asa... nu stiu pe cati i-ar interesa tabu pt. melodia asta, dar in fine...

Rock  

Ultima actualizare:  01.05.2008

Pentru a putea vota sau adăuda comentarii, e nevoie să te autentifici sau înregistrezi .