Holograf – Singur pe drum

(9 voturi)

Contribuție:  anonim120


strofa:

                     
Cand luminile sau stins
Si cand sala goala s-a inchis
Spectatorii au plecat de mult
Linistea din jur o mai ascult
 
Obosit si asudat
Fericit si totusi framantat
De aceleasi intrebari
Daca azi am fost mai bun ca ieri
 
Bridge:
                     
Strazile-s acum pustii
E tarziu e noapte si nu stii
Incotro sa mai alergi
Intre care stea sa mai alegi

Ref:
                        
      Sunt singur pe drum
 
solo:       (ca pe refren, nu ca pe versuri)

e|-----2-2---2-2-2-------------------------|
B|----2--------------5-5---2--2h3p2---2----|
G|---2------------------------------4----2-|
D|--4--------------------------------------|
A|-----------------------------------------|
E|-----------------------------------------|

e|--------------------------------------|
B|--------------------------------------|
G|--4/6--2--2/4-----2-2--1h2p1----------|
D|------------------------------2-2-----|
A|--------------------------------------|
E|--------------------------------------|

e|-----2-2-----------------------------------------------|
B|----2------5-5-5--2-2-2--------------------------------|
G|---2---------------------4-4--2-2---1-2---1------------|
D|--4-------------------------------------4---2-4-0-2-4-2|
A|-------------------------------------------------------|
E|-------------------------------------------------------|

e|----/5-4---2-2--0--------------5---|
B|--------------------5-5p2--5/7---7-|
G|-----------------------------------|
D|-----------------------------------|
A|-----------------------------------|
E|-----------------------------------|


e|------------------------------------------|
B|--/2---2-------------2-2-3----------------|
G|-----2----2-2------2-------4--4-2-1-2--1-1|
D|----------------/4------------------------|
A|------------------------------------------|
E|------------------------------------------|
 
e|-----------2-2-2------0-0----0-0----------------|
B|----------2-----2----2------2---2---------------|
G|---------2-------2--2------2-----2--4/6-2-2/4---|
D|--2-2---4---------------------------------------|
A|------------------------------------------------|
E|------------------------------------------------|

Pop-Rock  

Pentru a putea vota sau adăuda comentarii, e nevoie să te autentifici sau înregistrezi .

Acorduri