Holograf – Te voi iubi mereu

(4 voturi)

Contribuție:  anonim120


intro:
e|-----------------------------------------------1-------1/3--5-3-----|
B|-------5/6\5~----------5/6\5~---1~------5/6-6--1-----1--/3------3-|
G|-----5-----5~--5~-----5-----5~--2~----5-----5--2--------------------|
D|---------------5~---------------2-----------3--3---3----/5----------|
A|---3-------3---3----3-------0---0---3-------------------------------|
E|--------------------------------------------------------------------|
{se repeta}

Strofa:
                 
Poate ca nici nu ma cunosti
                        
Poate n-ai nici cum sa ma recunosti
                 
Pan-acum pentru mine ai fost
                                   
                     O zana buna

Poate ca va veni o zi
Cand voi sti cum sa iti pot vorbi
Pan-atunci fiecare ceas 
                E-o saptamana

Bridge:
                        
   Iti voi aduce in vis comori
                            
   Si vom zbura sus printre nori
                      
   Aculta-ma si credema acum

Ref:
                      
 Te voi iubi, te voi iubi
                 
 Oricat de greu ti-ar fi sa crezi
      
 Asculta si-ai sa vezi
 Te voi iubi, te voi iubi
 Si orice chip din jurul tau voi fi chiar eu
                    Te voi iubi mereu


Zilele vor veni zambind
Noptile vor fi de argint
Si-orice nor va fi doar un semn
           De vreme buna

Orice lucru pe care-l ceri vrei
Il gasesti doar in ochii mei
Si orice clipa ne va gasi
            Doar impreuna

Bridge:
Ref:

solo:


e|-----5-7-8-8~~----5-7-8-5-7---5~~--------------|
B|----5------------5----------8---------6p5p3h5~~|
G|---5------------5------------------------------|
D|--7--------------------------------------------|
A|-----------------------------------------------|
E|-----------------------------------------------|


e|--------------------------------------------|
B|--------------------------------------------|
G|--------------------------------------------|
D|--7p5p4h5~~---0-2-4-4/5-4-5-5/7-5-4h5p4-2~~-|
A|--------------------------------------------|
E|--------------------------------------------|

e|---12\---8\---------------------------------|
B|---13\--10\--10\-8h10----------------------|
G|--------------9\------9-7h9-5---7/9-5-5-7-5~~|
D|------------------------------7---------------|
A|----------------------------------------------|
E|----------------------------------------------|


e|----------------------------------5-7-8------|
B|-------5--6--8--5--6---5-----5-6-8-----------|
G|-------------------7---5-7-------------------|
D|---------------------------------------------|
A|---------------------------------------------|
E|---------------------------------------------|

e|--7-8-8/10--8~~~---7h8p7-----------------|
B|-------------------------8---------------|
G|---------------------------7-5-7-5~~-----|
D|-----------------------------------------|
A|-----------------------------------------|
E|-----------------------------------------|


Bridge:
Ref

Pop-Rock  

Comentarii

Pentru a putea vota sau adăuda comentarii, e nevoie să te autentifici sau înregistrezi .

Acorduri