Pistol cu capse – Un pas pana la nori

Contribuție:  micutzu


Ritm de ska pe intro si strofe.

Intro
E---8-8-x-x-5-5-x-x-4-4-x-x----12-12-10-10---5-----
B---8-8-x-x-5-5-x-x-4-4-x-x----12-12-10-10---5-----
G---9-9-x-x-6-6-x-x-6-6-x-x----12-12-10-10---6-----
D--------------------------------------------------
A--------------------------------------------------
D—-------------------------------------------------

E---8-8-x-x-5-5-x-x-7-7-x-x----5-x-5-x-5-----------
B---8-8-x-x-5-5-x-x-7-7-x-x----5-x-5-x-5-----------
G---9-9-x-x-6-6-x-x-8-8-x-x----6-x-6-x-6-----------
D--------------------------------------------------
A--------------------------------------------------
D—-------------------------------------------------


Strofa
E---8--x-8--x--5-x-5-x--4-x-4-x----5-x-5-x----------
B---8--x-8--x--5-x-5-x--4-x-4-x----5-x-5-x----------
G---9--x-9--x--6-x-6-x--5-x-5-x----6-x-6-x----------
D---10-x-10-x--7-x-7-x--6-x-6-x----7-x-7-x----------
A---10-x-10-x--7-x-7-x--6-x-6-x----7-x-7-x----------
D—--8--x-8--x--5-x-5-x--4-x-4-x----5-x-5-x----------






E---8--x-8--x--5-x-5-x--7-x-7-x----5-x-5-x-5-x-5---------
B---8--x-8--x--5-x-5-x--7-x-7-x----5-x-5-x-5-x-5---------
G---9--x-9--x--6-x-6-x--8-x-8-x----6-x-6-x-6-x-6---------
D---10-x-10-x--7-x-7-x--9-x-9-x----7-x-7-x-7-x-7---------
A---10-x-10-x--7-x-7-x--9-x-9-x----7-x-7-x-7-x-7---------
D—--8--x-8--x--5-x-5-x--7-x-7-x----5-x-5-x-5-x-5---------


Refren
E--------------------------------------------
B--------------------------------------------
G-----------7-7-7-------------5-5-5----------
D---5-5-5---7-7-7---2-2-2-----5-5-5----------
A---5-5-5---5-5-5---2-2-2-----3-3-3----------
D—--3-3-3-----------0-0-0--------------------


Intro

Strofa

Aceleasi vorbe aruncate fara rost 
Aceleasi vechi dorinte care sunt si care-au fost 
Nimic nu le poate schimba. 
Si tot ce vreau acum este sa fiu altcineva. 
Nu stiu ce ma mai tine aici 
E totul mult prea nou nu incerca sa imi explici 
Odata imi era usor 
Mai fac un pasi si-al doilea ma coboara dintre nori..

Intro

Strofa

La fiecare rasarit de soare sunt 
La fel de fericit, fascinat si incercand 
Sa nu mai am nici un regret 
Dar am aflat de mult 
Nimeni nu este perfect. 
Nu stiu ce ma mai tine aici 
E totul mult prea nou nu incerca sa imi explici 
Odata imi era usor 
Mai fac un pasi si-al doilea ma coboara dintre nori. 

Refren

E tot ce vreau sa fac....

Rock  

Comentarii

Pentru a putea vota sau adăuda comentarii, e nevoie să te autentifici sau înregistrezi .