Holograf – Ti-am dat un inel

(40 voturi)

Contribuție:  anonim120


intro
                                               
e|---10---10-10---5-5--5-5---------5-5--5-5--7--7-7-|
B|---10---10-10---5-5--5-5---------5-5--5-5--7--7-7-|
G|---11---11-11---7-7--7-7---------7-7--7-7--7--7-7-|
D|--------------------------------------------------|
A|-------------------------------5------------------|
E|--------------------------5h6h7-------------------|

                                etc..
e|--7-7--7-7--------7-7--7-7--7------------|
B|--7-7--7-7--------7-7--7-7--8------------|
G|--7-7--7-7--------7-7--7-7--7------------|
D|--7-7--7-7------------------9------------|
A|-----------------5----------10-----------|
E|-----------5h6h7------------7------------|

Strofa:
 
                                   
  Poa' sa vina primavara, cu alaiul ei de flori
                                 
  Poa' sa vina s-alta vara, fara tine nu le voi
                                                              
  Poa' sa vina cine-o vrea sa vina, daca nu esti tu e in zadar, mmm, da
                                   
  Seara 'ncepe fara tine, noaptea este si mai grea
                                       
  Cand ma trezesc si langa mine, nu gasesc iubirea ta
                                                   
  Si crede-ma, crede-ma ca fara tine nu sunt eu, nu, nu, nu

Bridge:

                              
   Am lasat la usa casei tale un inel
                                     
   Daca vrei o veste de la mine iti va spune el
                               
   Daca vrei sa fii cu mine nu mai astepta, nu astepta, nu astepta
       
 
Ref:
                               
       Ti-am dat un inel
                            
       Ti-am dat un inel
               
       Ti-am dat un inel
                         
       Mare cat inima mea
 
Strofa:
    Stii prea bine ca-mi esti draga, stii prea bine ca te vreau
    Stii prea bine viata-ntreaga, pentru tine eu o dau
    Si nu uita, nu uita ca dragostea nu s-a pierdut, nu, nu, nu

Bridge: 
   Daca insa toate astea te-ar aduce inapoi
   Daca zilele si noptile sunt pentru amandoi
   Daca crezi in mine, vino si nu astepta, nu astepta, nu astepta
 
Ref:

Bridge 2:
                              
  7 inimi am in mine, 7 vieti de as avea
                                     
  Dintre toate stii prea bine, tot pe tine te-as lua
                          
  Vremea insa nu ne iarta, lasa totul cum era
                                  
  Si vino-acum, si vino-acum, si vino-acum
 
Ref:

Pop-Rock  

Comentarii

Pentru a putea vota sau adăuda comentarii, e nevoie să te autentifici sau înregistrezi .

Acorduri