Compact – Cine-i vinovat (solo chitara inceput)

(1 voturi)

Contribuție:  Dan Cosmin


e ---------------------------------------
B ---18>20--18>20>18--17-----------------
G -----------------------19---17""""-----
D ---------------------------------------
A ---------------------------------------
E ---------------------------------------

e --------------------------------------------
B ----18>20--20>18---20>22"""--20>17--20-18-17
G --------------------------------------------
D --------------------------------------------
A --------------------------------------------
E --------------------------------------------

e ---------------------------------------
B --20-18-17----20-18-17-----------------
G -----------------------19-17""""""""---
D ---------------------------------------
A ---------------------------------------
E ---------------------------------------

 
E ---------------------------------------
B ------------------8--------------------
G -------5--7---7>8----7-8>7--5""""------
D --/7""---------------------------------
A ---------------------------------------
E ---------------------------------------

Strofa

....ca alta dat...

E ---------------------------------------
B -------5---5"""""----------------------
G ---7>9-7>9-9-9>7P5--------5-7>9---5----
D ----------------------(7)--------------
A ---------------------------------------
E ---------------------------------------

.....de tine iar...

E ---------------------------------------------------
B --15>17""--15>17>15-13----13-15>17>15p13----13"""--
G -----------------------14----------------14--------
D ---------------------------------------------------
A ---------------------------------------------------
E ---------------------------------------------------

Solo 1

E -------------------------------------------------
B --15>17""--15>17>15------15>17--15>17"""--17>15--
G --------------------(14)-------------------------
D -------------------------------------------------
A -------------------------------------------------
E -------------------------------------------------

E ----------------------------------------------
B ----------15"""/18"""--20>22----20"""---------
G --15"""----------------------21---------------
D --------------------------------------22"""---
A ----------------------------------------------
E ----------------------------------------------

E --------------------------------------------------
B -------13--15>17-15>17"">15--13-15"""--13----13""-
G ---/14"""---------------------------------14------
D --------------------------------------------------
A --------------------------------------------------
E --------------------------------------------------

E -------------------------
B -20>22-17----------------
G -------------------------
D -----------19"""""""-----
A -------------------------
E -------------------------

....spune ceva....

E -------------------------------------------------------
B --15>17"""-15>17--15>17--15>17--15>17---13"""""""/0----
G -------------------------------------------------------
D -------------------------------------------------------
A -------------------------------------------------------
E -------------------------------------------------------


SOLO CLAPE


>  bend up
"" vibrato
/  slide

By Danaila Dan Cosmin  david_gilmuor89

Rock  

Ultima actualizare:  16.05.2008

Comentarii

Pentru a putea vota sau adăuda comentarii, e nevoie să te autentifici sau înregistrezi .