Holograf – Vine o zi

(23 voturi)

Contribuție:  anonim120


Strofa:

                
Stiu, un copil se naste acum
Da', stiu. Un batran isi ia ramas bun.
Eu i-am spus vremii sa stea-n loc
                              
Amintirea mea vreau sa fie-a ta.
 
 
Ref:
 
                                
  Vine o zi, vine o zi cand se va sfarsi.
                   
  Nimeni nu va sti, nimeni nu va sti
     
  Oare cand va fi
  Vine o zi, vine o zi, iar de voi pleca
  Nimeni nu va sti, nimeni nu va sti
        
  Cat voi regreta,
        
  Cat voi regreta,
        
  Cat voi regreta
 
 
Nu, nu am ce sa va las
Doar cantul meu si un pic de noroc
Stiu, nu e mult dar e suflet curat
Si adevarat
 
Ref:

solo:
  
e|----------------------7~~~~--------------------|
B|-------8--/10------10^------r10p8-10^--10-10~~-|
G|-----7--------9--------------------------------|
D|-7h9-------------------------------------------|
A|-----------------------------------------------|
E|-----------------------------------------------|

e|--------------------------------------------|
B|--7/8p7--------------------------------8-10^|
G|--------7------------------------7-7h9------|
D|----------7-7~~----------------7------------|
A|-----------------9~---------7~~-------------|
E|--------------------10~~--------------------|

e|---7---------------------7----7----7------|
B|------10^r10p8-10-10--10^--10^--10^--10^r^|
G|------------------------------------------|
D|------------------------------------------|
A|------------------------------------------|
E|------------------------------------------|
 
e|-------------------------7-8-7h8p7-----|
B|--8h10p8\7-8\-----7-8-10-------------|
G|---------------------------------------|
D|---------------------------------------|
A|---------------------------------------|
E|---------------------------------------|

  
e|---------7-8-7h8p7--10-7-12-7-10-7-8|
B|--7-8-10----------------------------|
G|------------------------------------|
D|------------------------------------|
A|------------------------------------|
E|------------------------------------|

e|-7h8p7--7--------------------------------------|
B|------10--10^~~~~--10-8-10~~----10-x-x--8-x-x--|
G|---------------------------------9-x-x--7-x-x--|
D|-----------------------------------------------|
A|-----------------------------------------------|
E|-----------------------------------------------|
 
  
e|-------------------------------------------------------------|
B|---------------------------------------------8p7-----8-7~~---|
G|--9-9-9-x-x--7-7-7-x-x-x-------9-7-9^-7-7~-------7-9---------|
D|--9-9-9-x-x--7-7-7-x-x-x-------------------------------------|
A|-------------------------7-7-7-------------------------------|
E|-------------------------7-7-7-------------------------------|


 Ref:

Pop-Rock  

Comentarii

Pentru a putea vota sau adăuda comentarii, e nevoie să te autentifici sau înregistrezi .

Acorduri