Holograf – Vreau sa te vad zambind

(5 voturi)

Contribuție:  anonim120


intro:
      

Strofa:
              
Noaptea vine nechemata
              
Ziua parca nici nu ar fi fost
               
Am sa te mai sun o data
              
   Poate fara rost

Merg pe strazi si nu stiu unde
Vantul strege urma pasilor tai
Poate cineva te-ascunde
   Poate si tu vrei

Ref:
                  
 Si vreau sa te vad zambind
              
 Vreau sa te-aud soptind
                                
 Vreau sa vii iar la pieptul meu

La geamul tau e iar lumina
Dar cine oare mi-a luat locul acum
Poate ca sunt doar eu de vina
   Ca m-am orit din drum

N-ai sa stii niciodata
Ce mult mi-as fi dorit sa te regasesc
N-ai sa stii, n-ai sa stii 
   Ca inca te iubesc

Ref:

solo:
e|------------------------------------------------------|
B|------------5-6-5~~---------3-------------------------|
G|------4-5-7-------------4-5---5-5-4-5--4h5p4p2p0-2----|
D|--5-7----------------------------------------------2~~|
A|------------------------------------------------------|
E|------------------------------------------------------|

e|----------------------------------------|
B|-------------------3--3-3---------------|
G|---4h5p4p2p0h2h4h5---------4-5----------|
D|----------------------------------------|
A|----------------------------------------|
E|----------------------------------------|


                                se repeta
e|----------------3-------------|--------|
B|----------3-5-6----6-5h6p5----|-5h6p5--|
G|--0-2-4-5------------------7~-|------7-|
D|------------------------------|--------|
A|------------------------------|--------|
E|------------------------------|--------|


                              
e|-----------------8------7h8p7-7------------------------|
B|-5h6p5------8/10---10-----------8----------------------|
G|------7~~-------------------------7--9h10p9p7h9p7\5h7-|
D|-------------------------------------------------------|
A|-------------------------------------------------------|
E|-------------------------------------------------------|



e|--------------------------5-7-8-7h8p7---5--|
B|--------5-6-5h6p5---5-6-8-------------8---8|
G|--4-5-7-----------7------------------------|
D|-------------------------------------------|
A|-------------------------------------------|
E|-------------------------------------------|


e|---------------5-7-8-7-5---7-8-7-----------7-10p7--|
B|-5h6p5---5-6-8-------------------8-8---8--8-------8|
G|-------7-----------------------------7---7---------|
D|---------------------------------------------------|
A|---------------------------------------------------|
E|---------------------------------------------------|

e|--8--8-8-7-8-7-8-10--8-10-10/12-13|
B|----------------------------------|
G|----------------------------------|
D|----------------------------------|
A|----------------------------------|
E|----------------------------------|

e|-12----12-13-12h13p12----12-----12~~-----------------|
B|----13----------------13----13--13~~-----------------|
G|--------------------------------12~~-----------------|
D|-----------------------------------------------------|
A|-----------------------------------------------------|
E|-----------------------------------------------------|

C            Fsus4
Poate nu e prea tarziu
Am           F
Poate daca-am incerca
C           Fsus4           Am
Poate nu e prea tarziu
              F          
     Fii doar a mea, a mea, a mea

Pop-Rock  

Pentru a putea vota sau adăuda comentarii, e nevoie să te autentifici sau înregistrezi .

Acorduri