Phoenix – Zori de Zi + bataie si ritm

(4 voturi)

Contribuție:  Bogdan Alin


-Ritmul e o combinatie din ce am auzit intr-un live si ce mi-a iesit mie...
 -Suna cam ciudat sa zic si eu: "asculta melodie si te prinzi" cum fac 
multi... da in cazul asta chiar trebuie s-o asculti de cateva ori cu 
chitara-n mana.
 -Si bafta. Daca nu intelegi ceva... fa cantecu cum iti vine... 
ca nam tim de explicatii... si nu mai dati add doar ca sa salutati.
 -Multam' anticipat!


                         
     E dimineata zori  de  zi
     j j s       j j  j s  j j s  j j s j s  j
E||--0-0-0-------0-0--0-0--2-x-x--2-x-x-x-x--2--
B||--2-x-x-------0-0--0-0--2-x-x--2-x-x-x-x--2--
G||--2-x-x-------1-1--0-0--2-x-x--2-x-x-x-x--2--
D||--2-x-x-------2-2--0-0--4-x-x--4-x-x-x-x--4--
A||--0-0-0-------2-2--0-0--4-x-x--4-x-x-x-x--4--
E||--0-0-0-------0-0--0-0--2-x-x--2-x-x-x-x--2--
       4x                    4x       2x

      
                          
     Uite    pleaca  dracii  mii,
     j s j s j s j s j s j s j   j j s
E||--2-0-0-0-0-0-0-0-0-0-0-0-0---0-0-0--
B||--3-0-0-0-2-0-0-0-0-0-0-0-2---2-x-x--
G||--2-0-0-0-2-0-0-0-1-0-0-0-2---2-x-x--
D||--0-0-0-0-2-0-0-0-2-0-0-0-2---2-x-x--
A||--0-0-0-0-0-0-0-0-2-0-0-0-0---0-0-0--
E||--0-0-0-0-0-0-0-0-0-0-0-0-0---0-0-0--
                                   4x
                       
     E dimineata zori de zi
                   
     Se coboara ingerii


                                                             
     Hei, hei, hei zei peste zei
     j j s          j  j j   j j s  j j s j s  j s j s j s j s j s j s j 
E||--0-0-0----------2--0-0---2-x-x--2-x-x-x-x--2-0-0-0-0-0-0-0-0-0-0-0-0-
B||--2-x-x----------3--2-0---2-x-x--2-x-x-x-x--3-0-0-0-2-0-0-0-0-0-0-0-2-
G||--2-x-x----------2--2-1---2-x-x--2-x-x-x-x--2-0-0-0-2-0-0-0-1-0-0-0-2-
D||--2-x-x----------0--2-2---4-x-x--4-x-x-x-x--0-0-0-0-2-0-0-0-2-0-0-0-2-
A||--0-0-0----------0--0-2---4-x-x--4-x-x-x-x--0-0-0-0-0-0-0-0-2-0-0-0-0-
E||--0-0-0----------0--0-0---2-x-x--2-x-x-x-x--0-0-0-0-0-0-0-0-0-0-0-0-0-
     ...x                      4x       2x

                                
     Hei, hei , hei soare scantei



     E dimineata adevarat
     Sufletul fara pacat,
     E dimineata in viata mea
     Razele scalda inima.


     Hai, hai, hai Rai langa Rai,
     Hai, hai , hai , hai sus pe cai.

     E                A
     Caii  mei  cei   albi,
     j s j s j s j s  j  j j j j 
E||--0-0-0-0-0-0-0-0--0--0-0-0-0-
B||--0-0-0-0-0-0-0-0--2--2-2-2-0-
G||--1-x-x-x-1-x-x-x--2--2-2-2-0-
D||--2-x-x-x-2-x-x-x--2--2-2-2-0-
A||--2-x-x-x-2-x-x-x--0--0-0-0-0-
E||--0-0-0-0-0-0-0-0--0--0-0-0-0-
     E           A                                               ^
     Cai inaripati,                                              ^
     E            A      D A E A   >  si aici e faza de mai sus  ^
     Langa mine frati.


Caii mei usori,
Liberi zburatori,
Se ridica-n zori.

E dimineata zori de zi,
Oamenii vad oamenii
Roua pe dealuri, peste flori,
Fericit deasupra zbori.

Hei, hei, hei zei peste zei,
Hei, hei , hei Soare scantei.

Hai, hai , hai , hai sus pe cai.

Folk  

Comentarii

Pentru a putea vota sau adăuda comentarii, e nevoie să te autentifici sau înregistrezi .

Acorduri