Ștefan Hrușcă – Nunta de flori

(41 voturi)

Contribuție:  rasgeado


Originalul e în Bb, dar pentru comoditate am transcris în A

Notă: Guitar Pro-ul și midi-ul e doar pentru solo-ul de la refren.

Melodia poate fi cântată pe următorul ritm, exemplificat aici pentru acordul A

    A
E |-----0--0-----0--0----|
B |-----2--2-----2--2----|
G |-----2--2-----2--2----|
D |----------------------|
A |--0-------------------|
E |-----------0----------|


Dinspre grădini de parfum

Florile ies în alai

Vino, iubito, acum
                 
Vino cu primul tramvai

Crini, trandafiri, toporași
Vor să ne prindă nuntași
Și să ne cumpere iar
Sufletul dulce-amar
	
	Refren:

E |----------------------|----------------------|----------------------|
B |----------------------|--2--0----------------|----------------------|
G |----------------------|--------2--2--1-------|--2-------------------|
D |-----------------2----|-----------------4----|-----------------2----|
A |----------------------|----------------------|----------------------|
E |----------------------|----------------------|----------------------|
                   Pe       uliți de rouă în       zori          Des 

----------------------|----------------------|----------------------|
--2--0----------------|--0-------------------|--2--0-----0----------|
--------2--2--1-------|----------------------|--------2-------------|
-----------------4----|-----------------2----|-----------------2----|
----------------------|----------------------|----------------------|
----------------------|----------------------|----------------------|
culți alergăm și u      șori            Ga     roa fe de foc   Să-ți

----------------------|----------------------|----------------------||
--2--0-----0----------|-----------2--0--2----|--0-------------------||
--------2-------------|----------------------|-----2----------------||
-----------------2----|--2--2--2-------------|----------------------||
----------------------|----------------------|----------------------||
----------------------|----------------------|----------------------||	
poarte no roc    Iu      bi to la nunta de     flori

	
	Pe uliți de rouă în zori
		           
	Desculț alergăm și ușori
	          	
	Garoafe de foc
                     
	Să-ți poarte noroc
	                
	Iubito, la nunta flori

Ziua apare și ea
Într-o caleașcă de flori
Hai să deschidem în zori 
Poarta cetății cea grea

Și cu o floare ușor
Cum altădată visam
Celor ce încă mai dorm
Hai să le batem la geam

	Refren

+ 1 ton

Poate acești trandafiri
Fost-au cândva ca și noi
Buze aprinse de miri
Și-mbrăţișare de ploi

Nunta de flori s-o lăsăm
Să se reverse pe-alei
Toată cetatea de vrei
Florilor hai s-o predăm

	Refren

Folk  

Ultima actualizare:  01.05.2012

Comentarii

Pentru a putea vota sau adăuda comentarii, e nevoie să te autentifici sau înregistrezi .

Acorduri