Ștefan Hrușcă – Ruga pentru parinti

(47 voturi)

Contribuție:  rasgeado


                         
Enigmatici şi cuminţi

E||-------|-------3--------3--------|-------3--------3--------|
B||-------|----------3--------3-----|----------4--------4-----|
G||-------|-------------3--------3--|-------------5--------5--|
D||-------|-------------------------|-------------------------|
A||-------|-------------------------|--3----------------------|
E||-------|--3----------------------|-------------------------|


                           
   Terminându-şi   rostul lor
                      
-------1--------1--------|-------1--------1--------||
----------1--------1-----|----------3--------3-----||
-------------2--------2--|-------------3--------3--||
-------------------------|-------------------------||
-------------------------|--1----------------------||
--1----------------------|-------------------------||

etc.. pe următoarele acorduri:

              
Enigmatici şi cuminţi
                
Terminându-şi rostul lor
              
Lângă noi se sting şi mor
                     
Dragii noştri, dragi părinţi

              
Dă-ni-i Doamne înapoi
                   
Căci şi-aşa au dus-o prost
                    
şi fă-i tineri cum au fost
                   
Fă-i mai tineri decât noi

Pentru cei ce ne-au făcut
Dă un ordin, dă ceva
Să-i mai poţi întârzia
Să o ia de la început. 
 
Au plătit cu viata lor
Ale fiilor erori,
Doamne fă-i nemuritori
Pe părinţii care mor. 
 
Ia priviţi-i cum se duc,
Ia priviţi-i cum se sting,
Lumânări în cuib de cuc,
Parcă tac, si parcă ning. 
 
Plini de boli si suferinţi
Ne întoarcem în pământ,
Cât mai suntem, cât mai sunt,
Mângâiati-i pe parinti. 
 
E pământul tot mai greu,
Despărţirea-i tot mai grea,
Sărut-mâna, tatăl meu,
Sărut-mâna, mama mea. 
 
Dar de ce priviţi asa,
Fata mea si fiul meu,
Eu sunt cel ce va urma 
Dragii mei mă duc si eu.

Sărut-mâna, tatăl meu,
Sărut-mâna, mama mea.
Rămas bun, băiatul meu,
Rămas bun, fetita mea, 
 
Tatăl meu, băiatul meu,
Mama mea, fetiţa mea.

Comentarii

Pentru a putea vota sau adăuda comentarii, e nevoie să te autentifici sau înregistrezi .

Acorduri