Ștefan Hrușcă – Vara promisă

(32 voturi)

Contribuție:  rasgeado


                           Dm7
E||--0s--1p--0--------------1--|--L-------------------|
B||-------------3--1--0-----1--|--L-------------------|
G||----------------------0--2--|--L-------------------|
D||----------------------------|----------------------|
A||----------------------------|----------------------|
E||----------------------------|----------------------|

                         C
--0s--1p--0--------------0--|--L-------------------|
-------------3--1--0-----1--|--L-------------------|
----------------------0--0--|--L-------------------|
-------------------------2--|--L-------------------|
-------------------------3--|--L-------------------|
----------------------------|----------------------|

                        Dm              E7                    Am
--0s--1p--0--------------1--|--L---------0---------|--0---------0----L----||
-------------3--1--0-----3--|--L---------0---------|--3---------1----L----||
----------------------0--2--|--L---------1---------|--1---------2----L----||
----------------------------|------------0---------|--0---------2----L----||
----------------------------|------------2---------|--2---------0----L----||
----------------------------|------------0---------|--0-------------------||

                            
Te-aş fi iubit cum n-ai mai fost
                     
Ca un soldat în plin război
                  
Dar uite plouă fără rost
       
Iar între noi

Ca într-o gară nu ştiu cum
Când unul vine altu-i dus
şi rătăcim pe acelaşi drum
În sens opus

        Refren:

	                
	Ne răsfoieşte timpul, femeie
                            
	Pe un peron vechi de gară
	          
	Tu Iliadă, eu Odisee
	                 
	Scrise de mult într-o vară.

Te-aş fi iubit ca un pândar
Ce stă la drum în calea ta
Dar zilnic trece în zadar
Altcineva

Suntem şi noi ca două punţi
Pe apa unui singur dor
Dar despărţiţi de nişte munţi
Întâmplător

Ca un copil te-aş fi iubit
Ce fură mere din vecini
Uitând că totul e păzit
De-un gard cu spini

Dar vara ce ne-a logodit
Cununi de flori împurpurat
Ori n-a plecat ori n-a venit
Cu-adevărat

Folk  

Ultima actualizare:  15.11.2015

Comentarii

Pentru a putea vota sau adăuda comentarii, e nevoie să te autentifici sau înregistrezi .

Acorduri