Compact – Intoarce-te acasa

(1 voturi)

Contribuție:  anonim318


intro:

D-------------------10---9----------------------------|
A-------------10~-----------10~-----------------------|
F----9-11-12---------------------11---12-p11h12--14~--|
C-10--------------------------------------------------|
G-----------------------------------------------------|
d-----------------------------------------------------|

D--------------------10---9------------------------------|
A--------------10~-----------10~-------------------------|
F----9-11-12----------------------11-----12--p11---------|
C-10----------------------------------------------14-14~-|
G--------------------------------------------------------|
d--------------------------------------------------------|

D/G = 33500x

Okay, melodia e de fapt in DO, dar mi s-a parut ca suna mai frumos cu 
acordurile de RE (tinand cont ca am chitara acordata cu un ton mai jos). 
happy singin' :D

Versuri : Intoarce te acasa
Artist : Compact
Intoarce te acasa



D/G              D
Considera ca-i timpul
A                   D
Sa mergi din nou la ea
G                D
Si sper sa te conving
              A          D
Dac-am sa-ti spun si eu ceva.

D/G              D
     Nu fi prea sigur
A           D
Ca va putea ierta
G                    D
Toti anii acestia-n care
A                  D
Nu te-ai gandit la ea.



D/G             D
Ai fost atata vreme
A                D
Plecat din viata ei
G              D
Intoarce-te acasa
A                  Bmin
Si spune-i, daca vrei

D/G                 D
Ca nu se poate-o clipa
A              D
Macar sa fi uitat
G                D
C-ai fost atata vreme
A             D
In viata ei barbat.

Bmin    D9   D
Incearca, incearca,
A                 Bmin
Nu cred ca e prea greu.
G                D (V)
De n-o gasesti acuma
A          Bmin   A
Vei cauta mereu.
D/G          D (V)
Incearca, incearca
A                 D
Si o sa-mi spui apoi
Bmin          A           D
Ca ati avut dreptate amandoi.



D/G             D
Cand drumurile tale
A               D
Pareau fara sfarsit
G              D
Te astepta cu grija
A                 Bmin
Gandind ca s-a-mplinit

D/G               D
Sa vina iarasi vremea
A                 D
Sa fii din nou cu ea
D/G              D
Langa copilul care
          A         D
Doar din poze te stia.

Bmin         D (V)
Incearca, incearca,
Nu cred ca e prea greu.
De n-o gasesti acuma
Vei cauta mereu.
Incearca, incearca
Si o sa-mi spui apoi
Ca ati avut dreptate amandoi.


Bmin / Bmin / Bmin / Bmin
D/G - D - A (V) / A (V) / A (V) / A --- G (III) - A (V)

D/G             D
-
A                     D
Sa stii ca nu-i prea greu.
G                D
Dar daca pierzi acuma
A           D
Vei cauta mereu.
Bmin          D (V)
Incearca, incearca
A               Bmin
Si o sa-mi spui apoi
D/G            A          D
Ca ati avut dreptate amandoi.


Pop-Rock  

Pentru a putea vota sau adăuda comentarii, e nevoie să te autentifici sau înregistrezi .