Gil Ioniță – Sala de asteptare

(3 voturi)

Contribuție:  Silviu


Iată şi varianta mea asupra acestui cântec (astea sunt versurile piesei lui
Gil Ioniţă, un pic diferite faţă de cealaltă variantă de pe site); el tot 
foloseşte alte acorduri, însă nu prea le-am mirosit. Menţionez că Gil Ioniţă o
cântă în două feluri, este o variantă mai lentă şi cu arpegiere destul de 
rapidă (pe aceasta din urmă o vom descrie aici). Mai jos avem arpegierea 
pentru Do:

e|--------------0------------------------------------------------|
B|--------1--------1-----0---------------------------------------|
G|-----0-----0--------0------------------------------------------|
D|---------------------------------------------------------------|
A|--3------------------------------------------------------------|
E|---------------------------------------------------------------|
Fiecare vers are patru măsuri ale acestei arpegieri, adică pe fiecare dintre
 versuri se cântă arpegierea o dată pe acord, cu excepţia primului vers, unde
Am se cântă de două ori.

Acum, absolut fiecare Sol se cântă după următorul model:
e|---------------------------------------------------------------|
B|--------0--------0---------------------------------------------|
G|-----0--------0------------------------------------------------|
D|---------------------------------------------------------------|
A|-----------0--------2------------------------------------------|
E|--3------------------------------------------------------------|
şi apoi se intră imediat în arpegierea acordului Do. De asemenea, este de
 preferat să ţineţi Solul aşa: 3 2 0 0 3 3 (şi arpegierea de mai sus se 
schimbă corespunzător). Acum, când intră refrenul, cântaţi porţiunile cu 
”gara-i” şi ”aştepta...” pe arpegierea de mai sus (ascultaţi piesa ca să 
vedeţi cum se suprapun mai exact).


C               Cmaj9       Am
Sala voastră de-aşteptare-i pat şi saltea
F              C            Dm    G
Pentru voi, sărmanii lumii, inima mea
C           Cmaj9          Am
Nu mai vine trenul vostru, ce bine ştiu
F         C        Dm      G
şi pe linia ferată este pustiu


Refren:
       C         G          Am         Em
Gara-i moartă de mult, gara e numai un sat
   F            C        Dm            G
şi aici nici un tren n-a venit, n-a plecat
     C         G           Am         Em
Aşteptaţi în zadar şi fluieraţi la refren
   F         C         Dm          G
Nu există ce vreţi, nu există nici tren


Sala voastră de-aşteptare-i pentru ceva
Pentru ce-ar putea să fie inima mea
Eu vă ţin în mine însumi cu drag frăţesc
şi vă spun că nu sunt trenuri, că vă iubesc

Refren

ştiu că vi se face foame, dragilor fraţi
Ca din celălalt din mine, luaţi şi mancaţi
Sala voastră de-aşteptare, asta sunt eu
şeful staţiei anunţă trenul mereu

Refren

Nu mai vine trenul vostru, sincer v-o spun
Poate aşteptarea totuşi, nu-i lucru bun
Puneţi mâna pe unelte şi pe refren
şi din voi, sărmanii lumii, faceţi alt tren

Refren*2

Addendă: Cmaj9 - x 2 0 0 1 0

Pentru a putea vota sau adăuda comentarii, e nevoie să te autentifici sau înregistrezi .