Alexandru Andrieș – Dimineața devreme

(3 voturi)

Contribuție:  rasgeado


riff 1:

E7 
---------5-4-3-0---
-0-------------0---
-1-2-3-4-5-4-3-1---
-0-------------0---
-2-------------2---
-------------------

riff 2:

---7s9---7---
---5s7---5---
---7s9---7---
-------------
-------------

riff 3:

---------0--
-0-------0--
-1-------1--
-0-------0--
-2--2h4--2--
------------

                                    riff 1 riff 2
Dimineața devreme, ceața-i lipită de drum,
                                    riff 1 riff 3
Dimineața devreme, ceața-i lipită de drum,
                                     riff 1 riff 3
Trenul intră-n gară împachetat în fum...

Peronu-i pustiu, vântul se joacă-n hârtii,
Peronu-i pustiu, vântul se joacă-n hârtii,
Lumini colorate se-aprind ca niște făclii !

                    
Șeful de gară mă privește ciudat:
                                
"De ce nu ești la ora asta în pat,
                                          
Spune-mi, de ce umbli când toți oamenii dorm ?
                                     
Eu în locul tău, zău, aș fi mort de somn!"

"Aici în oraș stă o fată frumoasă,
Aici în oraș stă o fată frumoasă,
Am venit special așa,
S-ajung la ea acasă:
Vreau să-i fac o surpriză, știi,
Când se va trezi!"

sfârsit:
                           E7
----4------3------2--------0--
---------------------------3--
--4---4--3---3--2---2--1---1--
---------------------------0--
---------------------------2--
------------------------------

Blues  

Ultima actualizare:  01.01.2017

Comentarii

Pentru a putea vota sau adăuda comentarii, e nevoie să te autentifici sau înregistrezi .

Acorduri