Pistol cu capse – Cu Soarele

(2 voturi)

Contribuție:  ghit razvan


daca nu pricepeti ceva...contactati-ma :D

ACORDURI:

      F5    C5    Bb5     D5
e |---------------------------|
B |---------------------------|
G |---------5------3------7---|
D |---3-----5------3------7---|
A |---3-----3------1------5---|
E |---1-----------------------|


          
Daca nici soarele nu vrea
       
Sa mai astepte cum as putea
       
Cum as putea sa fac

Tot ce`mi trece prin cap
         
Si toata lumea sa`mi fie pe plac


Si totusi stiu ca nu`i asa
          
Da nu mai pot nici respira
            
Nu prea mai vreau sa te mint
            
Nu prea mai pot sa ating
          
Cerul, cu mana sa fur iar o stea


AICI PE PRIMELE 2 VERSURI VINE ASA:

     
e |---------------------------|
B |---------------------------|
G |-----------7^9^12^9--------|
D |---3-------x-x-x--x--------|
A |---3-------5-7-10-7--------|
E |---1-----------------------|

                         
Cu ochii deschisi visez inca o data

Tot ce`am dorit si am lumea toata
Bb5        C5          F5            
N`am sa te pierd niciodata
Bb5        C5          F5
Vreau sa visez doar o data


M`ascund printre nori
Si dorm printre stele
Mii de culori in visele mele,
De intampla uneori sa dispara
Nu`i prima nici ultima oara


F5                                  D5(CA SI PARTEA DE LA STROFA PRECEDENTA)
Spune`mi ca n`ai uitat totul despre mine
                          Bb5
Doar eu te cunosc cel mai bine
       C5                 F5
Nu pot sa ma trezesc fara tine
F5                              D5
Spune`mi ca vrei sa mai stai un minut
                                Bb5
Un minut stiu ca nu`ti cer prea mult
   C5                    F5
Si poate am sa incerc sa uit

Pop-Rock  

Pentru a putea vota sau adăuda comentarii, e nevoie să te autentifici sau înregistrezi .

Acorduri