Valeriu Sterian – Iluzia unei insule

(2 voturi)

Contribuție:  tudor americanu


piesa asta se cinta foarte usor la doua ghitari, si si la un bas si o
 ghitara.
 puteti sa cintati solo cu ghitara, si sa fluierati partile de 
ghitara solo. 

Intro (foarte usor):


                   
-------|-------|-------|-------
-------|-------|-------|---------
@------|-------|-------|--------  Eh, sa zicem ca se poate folosi B7 in
-----5-|-4-----|-------|------  loc de B. Am pus bare verticale sa indic  
@-7----|---7-5-|---5-7-|-7------  ce chorzi se cinta cu ce note (daca
-------|-------|-7-----|-------   cintati la doua ghitari)


-----------|----
-----------|------------------
----------@|------------------
-----------|-----------------    deci se repeta de la primele [@ @] pin 
--5-7-5---@|-------------------- aci la ultimele [@ @]  
--------7--|--------

...SI:
                     
Diseara-i plecarea in insula mea
                    
Trasura de nuc te asteapta la scara          (ar putea fi si aici B7 
                                           in loc de B...sa zicem)
Iati haine mai groase...si nu-ntirzia
                            
Ca-ci caini politisti s-ar putea sa apara



Urmeaza un solo scurt care leaga prima parte cu a doua:
                                                
------------|----------|------------|-------------|-----------------
------------|----------|------------|-------------|------0----(0)---
------------|----------|---0---0--0-|-------------|----2------(2)----
---------/2-|-0--000---|------------|-4---4-4-3-2-|-1------1--(1)--
-------2----|-------4-3|2---2---2---|-------------|----------2(2)----
-0-2h3------|----------|------------|-------------|----------------

intretimp de partea aia se cinta:
(Acordurile sunt la fel ca in tabul de sus)
D                      G
Nuti face probleme, birjarul e mort
   D                     B7
Si caii sint morti si trasura e moarta

(inainte ca se mearga in urmatoarea parte, ghitaristul face un solo scurt:)
---------
---------
---------
-----0-1- ->(intrati direct in Em acuma)
-2-2-----
--------

Em         D          B          Em
Fugim fara martori in nu stiu ce port
Em        D            B        Em
In insula mea la cinci capete sparte
Em           D        B        Em
Nuti face probleme birjarul e mort
Em              D        B       Em
Si caii sint morti si trasura e moarta

                   
------|-------|-------|-------
------|-------|-------|---------
------|-------|-------|--------  
----5-|-4-----|-------|------      
-7----|---7-5-|---5-7-|-7------  
------|-------|-7-----|------- 

                   
------|- -----|-------|-------------|-
----8-|-7-----|-------|------------ -|
-9----|---9-7-|---7-9-|--9---7-9-7---|  si se repeta.  
------|-------|-9-----|-----------9--|    
--- --|--- ---|-------|--------  ----|
------|-  ----|-------|------- ------|

Piesa este foarte usoara. Spunetimi si voi ce credeti..

Ultima actualizare:  14.07.2009

Comentarii

Pentru a putea vota sau adăuda comentarii, e nevoie să te autentifici sau înregistrezi .

Acorduri