Direcția 5 – Am nevoie de tine

(26 voturi)

Contribuție:  anonim120


intro:

e|-----------------------------------------------2-|
B|---------------3------------------------3-2-3----|
G|-----------2-4----2/4--2-2---2/4--2-2------------|
D|---0-2-4-5---------------------------------------|
A|-------------------------------------------------|
E|-------------------------------------------------|


e|----------5---------------------------------|
B|---3-2-3------------------------3/5--3-3----|
G|---------------2/4--2-2---------------------|
D|----------------------------5-4-------------|
A|--------------------------------------------|
E|--------------------------------------------|


e|------3-2----------3-2------------|
B|-----3-----5-3----3-----5-3----3--|
G|----4------------4----------------|
D|----------------------------------|
A|----------------------------------|
E|----------------------------------|

  
În liniștea mea
     
Mă întreb de-aș putea
                      
Să te simt aproape din nou
Îmi revin amintiri
Gânduri ce vor veni
Să-mi aducă în sufletul gol
Îmi lipsește curajul de a-ți spune ce simt
Nimic nu s-a schimbat
Sentimente pierdute le-am reîntâlnit
De acum eu le-am aflat

              D       Bm  G A
Am nevoie de ti-i-i-i-ne
 
Azi încerc să mă ascund,
Încerc să nu uit
Ma gândesc la tine mereu
Totu-mi pare tăcut, totu-mi pare pierdut
Devine tot mai greu

Refren:

                 
   Am nevoie de tine
                  
   Când mă trezesc
   Am nevoie de tine
   Să pot să visez
   Am nevoie de tine
   Să mă asculți
   Am nevoie de tine
   Să nu mă uiți
  
e|-------------|
B|-----3-2-----|
G|----2----2---|
D|---2---------|
A|-------------|
E|-------------|

Solo:

e|--------------------------------------------------|
B|---------------3------------------------3-2-------|
G|-----------2-4----2/4--2-2---2/4--2-2-------4-2---|
D|---0-2-4-5--------------------------------------5-|
A|--------------------------------------------------|
E|--------------------------------------------------|

e|-------------------------------------------|
B|-------------------------------3/5--3-3----|
G|----------------2/4--2-2-------------------|
D|----4h5p4-2-0-2-0----------5-4-------------|
A|-------------------------------------------|
E|-------------------------------------------|

e|-----3-2--3-5------7-5--7-9--10--|
B|----3-------------5--------------|
G|---4-------------6---------------|
D|---------------------------------|
A|---------------------------------|
E|---------------------------------|

Am nevoie de tine
Când mă trezesc
Am nevoie de tine
Să pot să visez
Am nevoie de tine
Să mă asculți
Am nevoie de tine
Să nu mă uiți

Pop-Rock  

Comentarii

Pentru a putea vota sau adăuda comentarii, e nevoie să te autentifici sau înregistrezi .

Acorduri