Direcția 5 – Seductie

(11 voturi)

Contribuție:  anonim120


-aceasta este o melodie mai veche de-a lor, cand nu era
 Cristi Enache vocal, fanii mai vechi ai directiei 5 o stiu.

intro:

                                  
e|---0--0---------0-0-0-------3/5-0--|
B|---0--0---------3-3-3-3/5\3-3/5---|
G|---0--0---------2-2---2/4\2-------|
D|---2--2-/2-0----0-0----------------|
A|---2--2------0---------------------|
E|---0-------------------------------|

                  
e|-5-5-5-5---5--5---0-0-0---------------0-0--------|
B|--8-8-8-8---8--5---0-0-0---------------0-0-------|
G|--5-5-5-5---5--5---0-0-0---------------0-0-------|
D|-7-7-7-7---7--7---2-2-2---------------2-2-/2-0---| 
A|-0----------------2-2-------------0h2-2-2------0-|
E|------------------0-----3p2p0--2h3---------------|


Strofa:
                    
 When I, when I'm sitting in the dark,
                   
 I believe the words you say
 When I, when I'm singing with no charm,
 I believe you're not my way
 Well I smell the richness of the sky
 But I still need your shiny eyes
 Well I see the room begins to sway
 I know my cares will blow away...

Ref:
                               
  Blow away, blow away, shine away
                             
  Blow away, blow away, shine away
  Blow away, blow away, shine away
  Blow away, blow away, shine away

Strofa:

 When I fell I'm near the end
 Yes I try to save our land
 Well I start to feel the pain
 I believe that you couldn't remain
 
 But I've been loosing you,
 I've been loosing you oh 
 What a beautifull way
 I've been loosin' control
 I'be been loosin' my soul
 Ohh What a beautifull way...

Ref:

fluierat:        

Pop-Rock  

Comentarii

Pentru a putea vota sau adăuda comentarii, e nevoie să te autentifici sau înregistrezi .

Acorduri