Fără Zahăr – Ghiocelul salbatic

(6 voturi)

Contribuție:  generalDona


Asta e a doua mea tentativa la melodia asta si cred eu ca este corecta, 
oricum mai corecta decat restul variantelor postate aici.
 
   melodia are doua acorduri: A si Bm sub forma aratata mai jos.

           A                        Bm
 |---------------------------------------------------
 |-----2----2----2---2--------3----3-----3---3-------
 |-----2----2----2---2--------4----4-----4---4-------
 |---------------------------------------------------
 |--0----------0------------2----------2-------------
 |-------0---------0-------------2---------2---------

    Aici este solo-ul de la inceput, am notat cu simbolurile acordurilor 
respective deasupra rifului pentru ca sa va faceti o idee cand sa le 
schimbati.

    A   A   A   A   A    A    A          A    A   A   A  A          Bm
 |-------------------------------------------------------------------------
 |-5-9h10-10--10-10-10-10-9-9-9-9-9-7-7-7-7--5-5-5-5-5-5-5--3-2--2-2h3-7---
 |-----------------------------------------------------------------------4-
 |-------------------------------------------------------------------------
 |-------------------------------------------------------------------------
 |-------------------------------------------------------------------------
 
   Bm   Bm    Bm      Bm        Bm          A
 |---------------------------------------------
 |-5s7-5-3-2s3-5--2-2--0-0--2-3-2h3p2----------
 |------------------------------------4-2------
 |---------------------------------------------
 |---------------------------------------------
 |---------------------------------------------


     Solo-urile de la refren sunt asemanatoare cu ce e la intr-o

    A        A       A   A   Bm   Bm    Bm       A   A   A    A
 |--------------------------------------------------------------------
 |-10-10-10-9-9-9-7-7-7-5-5----2s3-5-3--2p0-2h3---3p2-3p2-3p2-2h3-----
 |-----------------------------------------------------------4--------
 |--------------------------------------------------------------------
 |--------------------------------------------------------------------
 |--------------------------------------------------------------------

       A
      Cand ne-am intalnit ultima oara
                                Bm
      Tu tinea-i in mana un ghiocel 
                               A  
      Gingas vestitor al primaverii
                                    Bm
      Cat imi esti de draga-mi spune el
                                A
      Gingas vestitor al primaverii
      Bm                             A
      Cat imi esti de draga-mi spune el
         
      A
      Cand ne-am intalnit ultima oara
                                Bm 
      Eu tineam in mana un ghiocel
                                   A 
      Nici n-am observat zburand o cioara
                            Bm
      Sau poate era un porumbel
       A
      Nici n-am observat zburand o cioara
       Bm                    A
      Sau poate era un porumbel

       A                               Bm
      Of ca mi se spune ghiocelul salbatic
                               A 
      Dar defapt ma cheama Sandel si cred ca mor
                                         Bm
      Mai Sandele mama draga imi esti simpatic
                                  A
      Dar iubesc pe altul cu tractor...etc


   Se poate sa fi gresit putin la asezarea acordurilor da nu cu mult, 
ascultati melodia si o invatati in 2 minute.
    Astept plangeri si amenintari la adresa de mail.

Ultima actualizare:  06.11.2008

Comentarii

Pentru a putea vota sau adăuda comentarii, e nevoie să te autentifici sau înregistrezi .