Mihai Mărgineanu – Cadeee

(9 voturi)

Contribuție:  generalDona


Vers
                             
   |-----3-3------0-0------0-0------2-2------
   |-----3-3------0-0------1-1------3-3------
   |-----------------------------------------
   |----------------------------0-0----------
   |------------------3-3--------------------
   |-3-3-----0-0-----------------------------

                           refren
     Si-atunci am strigat          Cadeeeeeeeeee.......
   |---------------3-3--3--2-3-----------3-3-----0-0------0-0-----2-2-
   |---------------3-3--3--3-3-----------3-3-----0-0------1-1-----3-3-
   |------------------------------------------------------------------
   |-----------------------0-----------------------------------0-0----
   |--------------------------------------------------3-3-------------
   |-----------3-3------3----3-------3-3-----0-0----------------------

    ...cade copacu'
   |-----------3-3-3-3-3---3--2-----------
   |-----------3-3-3-3-3---3--3-----------
   |--------------------------2-----------
   |--------------------------0-----------
   |--------------------------------------
   |-----------3-3-3-3-3---3-------------- 


Nu vreau sa fiu ingamfat da sunt sigur ca e destul de bun tabu, poate un pic 
cam comfuz da va dati voi seama ce si cum.

Comentarii

Pentru a putea vota sau adăuda comentarii, e nevoie să te autentifici sau înregistrezi .

Acorduri