Ana Maria – Iubirea-i peste tot

(14 voturi)

Contribuție:  Vlad Pustai


Acorduri:    

INTRO:

e-----------------|----------------|------------------|
B-----------------|----------------|------------------|
G-----------------|----------------|------------------|
D-0-9-7-5-7-------|-0-9-7-5-7------|-0-9-7-5-7-77-99--|
A----------7-----|-----------5----|------------------|
E-----------------|----------------|------------------|

e-----------------|----------------|------------------|
B-----------------|----------------|------------------|
G-----------------|----------------|------------------|
D-0-9-7-5-7-------|-0-9-7-5-7------|-0-9-7-5-7-77-909-|
A-----------7-----|-----------5----|------------------|
E-----------------|----------------|------------------|

[NC]              			  		  
Intr-o dimineata     te-ai mutat cu-ai tai pe strada mea
	     	       	  
Eram curioasa de ce privirea ta ma ocolea		
                                        
Am incercat sa fac eu primul pas si nu a fost de-ajuns
                                                       
Iar tu visezi cu ochii larg deschisi dar nu gasesti raspuns.

REFREN:
                 		    
Iubirea-i peste tot e chiar aici
	       	      
Intinde mana doar si o atingi
		  		    		  	 
Ti-am dat de inteles ca te-a ales inima mea	inima mea


e-----------------|----------------|------------------|
B-----------------|----------------|------------------|
G-----------------|----------------|------------------|
D-0-9-7-5-7-------|-0-9-7-5-7------|-0-9-7-5-7-77-99--|
A-----------7-----|-----------5----|------------------|
E-----------------|----------------|------------------|

M-ai invitat la tine era petrecerea aceea de ziua ta
Dar nu aveai ochi pentru minesi povesteai mereu cu altcineva
Am incercat sa te invit la dans	dar tu ai disparut
Ma-ntreb sa fii tu oare prea timid sau poate vrei prea mult

REFREN 2:

Iubirea-i peste tot e chiar aici
Intinde mana si o atingi
Ti-am dat de inteles ca te-a ales inima mea, inima mea
Iubirea-i peste tot dar tu nu crezi
Zambeste-n fata ta si nu o vezi
Deschide ochii	nu ai ce sa pierzi e doar a ta...inima mea
Am incercat sa fac eu primul pas si nu a fost de-ajuns
Daca privesti cu ochii largi deschisi o sa gasesti raspuns.

REFREN 2
REFREN 1 si fade out...


Un cantec foarte frumos al Anei Maria, 
e chiar foarte usor de cantat la chitara.Enjoy!

Pop  

Pentru a putea vota sau adăuda comentarii, e nevoie să te autentifici sau înregistrezi .

Acorduri