Compact – Stai cu mine (solo)

Contribuție:  vladu


E--------------------------------------------------------
B---15s17~-15-----------15--14-14-12-12------------------
G-------------18-/14~~~-----------------14-14~~14h16-----
D---------------------------------------------------16~~-
A--------------------------------------------------------
E--------------------------------------------------------

-----------------------------------------------------
--------------------/17--17s19s17-15p14-15p14--------
---14h16-------------------------------------14-14~~-
16------16~~--14-14----------------------------------
-----------------------------------------------------
-----------------------------------------------------


E------------------------------------------------------------------------------
B-----------------------------15p14--------------------------------------------
G----14-16s18s16-14--------14-------16~----14-16s18s16-14----14~~~~------------
D-16----------------18--16--------------16----------------18-------------------
A------------------------------------------------------------------------------
E------------------------------------------------------------------------------

Rock  

Comentarii

Pentru a putea vota sau adăuda comentarii, e nevoie să te autentifici sau înregistrezi .