Alexandru Andrieș – Șeherezada

(7 voturi)

Contribuție:  rasgeado


Linia de bas pe parcursul melodiei:

     Q    E  E  E  E  Q    E  S E  S    E  E  E  E  E  Q    Q    Q     
G||----------------------------------|--------------------------------|
D||----------------------------------|--------------------------------|
A||-------2-----5----------2----5----|--------3-----5-----------------|
E||--3----------------3--------------|--5-----------------------------|


  Q    E  E  E  E  Q    E  S E  S    E  E  E  E  E  E  S E  S E  S E  S    
----------------------------------|--------------------------------------||
----------------------------------|-------------------------------------*||
-------3-----5----------3----5----|--------2-----5----------------------*||
--5----------------5--------------|--3-------------------0----1----2-----||


                       
Dragă şeherezada, uite acolo-i grămada
                                   
Alege-ţi o pereche dar vezi să nu fie veche
                                 
Vezi să nu fie murdară, cum s-a-ntâmplat aseară

Haide începe-ţi povestea
			
Că pe urmă trecem la chestia
A doua, haide

       
Ptrr-ptr...
     
Ptrr-ptr...


Șeicul din Bagdad era un om foarte slab
Toată lumea ştia şi numai de asta vorbea
Când cineva prin Bagdad trecea, îndată, îndată afla
Despre şeicul din Bagdad şi punctul lui foarte-foarte-foarte slab

Dar vezi că-ntr-o bună zi o comisie întreagă veni
Și merse drept la şeicul din Bagdad care-avea un punct foarte slab
Și zise cum e posibil ca-n Bagdad să fie şeicu-n om cu punct slab
Când în alte părţi c-un punct slab nu ajungi nici măcar zugrav, tovarăşi

Da vezi că şeicul din Bagdad care-avea un punct foarte slab
Ținea prin sertare şi-un punct foarte tare
Aşa că comisia veni şi după ce se sfătui
Decise prin comparaţie că-ntr-o astfel de situaţie, tovarăşi

Ultima actualizare:  07.11.2009

Pentru a putea vota sau adăuda comentarii, e nevoie să te autentifici sau înregistrezi .

Acorduri