Victor Socaciu – Viața, iubirea cea dintâi

Contribuție:  rasgeado


Capodastru pe III

                                                       
E||-----------------------|------------------------|
B||-----------------------|------------------------|
G||-----------------------|--2--------0----2-0-----|
D||-----------0--2--------|---------------------3--|
A||--0--2--3--------------|------------------------|
E||-----------------------|------------------------|

                                      
-------------------------|----------------------||
-------------------------|----------------------||
-------------------------|----------------------||
--2---------0----2-0-----|----------------------||
----------------------3--|--2----3-----0--------||
-------------------------|----------------------||

                          
Mai sunt destule lucruri în lume
               
La care ţinem mult
                       
Dar peste toate-i una, o taină
            
Poveste de demult
                        
Nepreţuită-i viaţa ce-ntotdeauna-a fost 
             
Iubirea cea dintâi
    
Ce mult ni-i dragă viaţa

Ce mult am vrea să-i spunem 
                      
Mai rămâi, râmăi, rămâi, rămâi
                         
Haide, haide, haide, hai, rămâi

	Refren:

        riff1                         
	Hai să ne-ntâlnim toţi în mileniul trei
                          
	Hai să mai trăim un pi-ic
        riff1                        
	Haideţi să veghem toţi viaţa pe pământ
                            
	şi-n mileniul trei vom fi

Să ne iubim, se-aude poetul
Să ne iubim deplin
Mereu la noi acasă cu grijă
Păzim un cer senin
Nepreţuită-i viaţa ce-ntotdeauna-a fost 
Iubirea cea dintâi
Ce mult ni-i dragă viaţa
Ce mult am vrea să-i spunem 
Mai rămâi, râmăi, rămâi, rămâi
Haide, haide, haide, hai, rămâi

        riff1                         
	Hai să ne-ntâlnim toţi în mileniul trei
                          
	Hai să mai trăim un pi-ic
        riff1                          
	Haideţi să veghem toţi viaţa pe pământ
                            
	şi-n mileniul trei vom fi
        riff1                          
	Hai să ne-ntâlnim toţi în mileniul trei
                          
	Hai să mai trăim un pi-ic
        riff1                          
	Haideţi să veghem toţi viaţa pe pământ
                                            (unde e * urcă tonalitatea)
	şi-n mileniul trei vom fi, vom fi, vom fi
 	
	riff2        	                  
	Hai să ne-ntâlnim toţi în mileniul trei
                         
	Hai să mai trăim un pi-ic
                                  
	Haideţi să veghem toţi viaţa pe pământ
                           
	şi-n mileniul trei vom fi


Riff1:

E||--------------|
B||--------------|
G||--------------|
D||-----------0--|
A||--0--2--3-----|
E||--------------|

Riff2:

E||--------------|
B||--------------|
G||--------------|
D||-----------2--|
A||--2--4--0-----|
E||--------------|

Ultima actualizare:  01.01.2017

Pentru a putea vota sau adăuda comentarii, e nevoie să te autentifici sau înregistrezi .

Acorduri