Zdob și Zdub – Buna dimineata

(5 voturi)

Contribuție:  generalDona


Intro si bridge
 
  C       C             C           Dm              Dm           Dm
 |-------------------------------------------------------------------
 |-------------------------------------------------------------------
 |------------0-------0----0-----------------------------------------
 |----2---3-2---3-2----3-2--3-2------0--0-0-2-0--3-2-0--3-2-0-3-2-0--
 |-3----3------------------------------------------------------------
 |-------------------------------------------------------------------
    Bb    Bb         C   C           Dm      Dm        Dm     
 |--------------------------------------------------------------
 |--------------------------------------------------------------
 |-----------------------------------------------0-----0--------
 |--0--0-0-2-0-3-2-0--3-2-0-3-2-0----2--2-2-3-2----3-2---3-2----
 |--------------------------------------------------------------
 |--------------------------------------------------------------



            Refren
    Nota: am uitat denumirea corecta a acestui acord : x32013 asa ca o sa-l 
notez C? ca sa nu fie confundat cu C...

     C?   F     G      Dm         Hopa dilidai... Buna dimi-nea-ta 
  |--3--- 1-----3----- 1------|  |-3-------1-------3-3------1-0---
  |--1--- 1-----3----- 3------|  |-1-------1-------3-3------3-3--3
  |--0--- 2-----0----- 2------|  |-0-------2-------0-0------2-2--2
  |--2--- 3-----0----- 0------|  |-2-------3-------0-0------0-0--0
  |--3--- 3-----2----- -------|  |-3-------3-------2-2------------
  |------ ------3----- -------|  |-----------------3-3------------
                                 
      C?      F                      Timpii de mai sus nu sunt foarte
      Hopa dilidai                corecti, asa ca va faceti voi o bataie
      C?      F                   cum vreti sau  ascultand melodia. 
      Hopa dilidai
      C?      F
      Hopa dilidai
      G         Dm  
      Buna dimi-nea-ta!

          
         Vers 
  
     C   
     Buna dimineata tara
     Dm
     Ma trezeste soarele
     Bb
     Ies afara cu chitara
     C
     Ciocarlii fanfarele

     C
     Suna vesela mea struna
     Dm
     Vantul duce muzica
     Bb          C     Dm 
     Toata lumea canta melodia mea...


             Asta e...

Ultima actualizare:  31.01.2009

Comentarii

Pentru a putea vota sau adăuda comentarii, e nevoie să te autentifici sau înregistrezi .